» » »

Ed Sheeran - Thinking Out Loud Bass

Artists:  A B C D E F G H I J K L M N O P Q R S T U V W X Y Z # 

Thinking Out Loud Bass

(ver. 2) Click to play this song!
Ed Sheeran
 Rating:
3.2/5 (28 votes)

 Thinking Out Loud lessons Tabs too difficult? Try these video lessons and learn fast
 
                Verse:
G|----------------|----------------|----------------|----------------|----------------|----------------|
D|-------4---4----|----------------|-------4---4----|----------------|-------4---4----|----------------|
A|5---------------|-------------4-5|5---------------|-------------4-5|5---------------|-------------4-5|
E|----------------|3------5---5----|----------------|3------5---5----|----------------|3------5---5----|

G|----------------|----------------|
D|-------4---4----|----------------|
A|5---------------|-------------4--|
E|----------------|3------5---5----|

Chorus:
G|----------------|----------------|----------------|----------------|
D|----------------|----------------|----------------|----------------|
A|----------------|----4-5---------|----------------|--------4-5-7---|
E|0------0-------3|5---------------|0------0----3--5|-------5--------|

G|----------------|----------------|----------------|----------------|
D|----------------|----------------|----------------|----------------|
A|----------------|---------2------|----------------|----------------|
E|0------0-------3|5---------------|0------0-------3|5-5-5-5-5-------|

Verse:
G|----------------|----------------|----------------|----------------|----------------|----------------|
D|-------4---4----|----------------|-------4---4----|----------------|-------4---4----|----------------|
A|5---------------|-------------4-5|5---------------|-------------4-5|5---------------|-------------4-5|
E|----------------|3------5---5----|----------------|3------5---5----|----------------|3------5---5----|

G|----------------|----------------|
D|-------4---4----|----------------|
A|5---------------|-------------4--|
E|----------------|3------5---5----|

Break:
G|----------------|----------------|
D|----------------|----------------|
A|----------------|-------5--------|
E|7---5---3---2---|0---5-----------|

Verse:
G|----------------|----------------|----------------|----------------|----------------|----------------|
D|-------4---4----|----------------|-------4---4----|----------------|-------4---4----|----------------|
A|5---------------|-------------4-5|5---------------|-------------4-5|5---------------|-------------4-5|
E|----------------|3------5---5----|----------------|3------5---5----|----------------|3------5---5----|

G|----------------|----------------|
D|-------4---4----|----------------|
A|5---------------|-------------4--|   2x
E|----------------|3------5---5----|

Chorus:
G|----------------|----------------|----------------|----------------|
D|----------------|----------------|----------------|----------------|
A|----------------|----4-5---------|----------------|--------4-5-7---|
E|0------0-------3|5---------------|0------0----3--5|-------5--------|

G|----------------|----------------|----------------|----------------|
D|----------------|----------------|----------------|----------------|
A|----------------|---------2------|----------------|----------------|
E|0------0-------3|5---------------|0------0-------3|5-5-5-5-5-------|

Verse:
G|----------------|----------------|----------------|----------------|----------------|----------------|
D|-------4---4----|----------------|-------4---4----|----------------|-------4---4----|----------------|
A|5---------------|-------------4-5|5---------------|-------------4-5|5---------------|-------------4-5|
E|----------------|3------5---5----|----------------|3------5---5----|----------------|3------5---5----|

G|----------------|----------------|
D|-------4---4----|----------------|
A|5---------------|-------------4--|
E|----------------|3------5---5----|

Break:
G|----------------|----------------|
D|----------------|----------------|
A|----------------|-------5--------|
E|7---5---3---2---|0---5-----------|

Verse:
G|----------------|----------------|----------------|----------------|----------------|----------------|
D|-------4---4----|----------------|-------4---4----|----------------|-------4---4----|----------------|
A|5---------------|-------------4-5|5---------------|-------------4-5|5---------------|-------------4-5|
E|----------------|3------5---5----|----------------|3------5---5----|----------------|3------5---5----|

G|----------------|----------------|
D|-------4---4----|----------------|
A|5---------------|-------------4--|   2x
E|----------------|3------5---5----|

Break:
G|----------------|----------------|
D|----------------|----------------|
A|----------------|-------5--------|   3x
E|7---5---3---2---|0---5-----------|
            
Submit corrections


        Thinking Out Loud lessons Hard to play? Try these video lessons and learn fast Thinking Out Loud lessons
        
↑ Back to top | Tablatures and chords for acoustic guitar and electric guitar, ukulele, drums are parodies/interpretations of the original songs. You may use it for private study, scholarship, research or language learning purposes only