» » »

Ed Sheeran - Thinking Out Loud Bass

Artists:  A B C D E F G H I J K L M N O P Q R S T U V W X Y Z # 

Thinking Out Loud Bass

(ver. 1) Click to play this song!
Ed Sheeran
 Rating:
4/5 (4 votes)

 Thinking Out Loud lessons Tabs too difficult? Try these video lessons and learn fast
 
                Stanza Chord Pattern
-----------------|
-----------------|
5-9-9-------3-4--|
------3-5--5-----|


Chorus Chord Pattern (People fall in love in mysterious ways....)

------------------------------------------|
------------------------------------------|
--7---------3-5-5----5s7------------4-5-7-|
0---0-3-4-5--------0-----0-3-4-5--5-------|


--------------------------------------------|
--------------------------------------------|
--7--------------------5s7------------------|
0---0-3-4-5--7--7-7--0-----0-3-4-5--5-5-5-5-|

(Maybe we found love right where we are...)
--------------|
9-7-5-4-2-4---|
------------5-|
--------------|
            
Submit corrections


        Thinking Out Loud lessons Hard to play? Try these video lessons and learn fast Thinking Out Loud lessons
        
↑ Back to top | Tablatures and chords for acoustic guitar and electric guitar, ukulele, drums are parodies/interpretations of the original songs. You may use it for private study, scholarship, research or language learning purposes only