Home » E » Ed Sheeran »

Ed Sheeran - Thinking Out Loud Tabs

Artists:  A B C D E F G H I J K L M N O P Q R S T U V W X Y Z # 

Thinking Out Loud Tabs

(ver. 2) Click to play this song!
Ed Sheeran
[Verse]

e|-------x-------x-------x-------------|
B|---3---x---3---x---3---x---2---------|
G|---2---x---2---x---0---x---2-2h4p2---| x4
D|---0---x-------x-------x---2---------|
A|-------x-------x-------x---0---------|
E|-------x---2---x---3---x-------------|

e|-------x-------x-------x------x--|
B|---3---x---3---x---3---x---2--x--|
G|---2---x---2---x---0---x---2--x--| x4
D|---0---x-------x-------x---2--x--|
A|-------x-------x-------x---0--x--|
E|-------x---2---x---3---x------x--|


[Pre-Chorus]

     Em          A7    D        Em          A7 
e|---0--x--0--x--0--x--2--x--|--0--x--0--x--0--x--0--x--|
B|---0--x--0--x--2--x--3--x--|--0--x--0--x--2--x--2--x--|
G|---0--x--0--x--0--x--2--x--|--0--x--0--x--0--x--0--x--|
D|---2--x--2--x--2--x--0--x--|--2--x--2--x--2--x--2--x--|
A|---2--x--2--x--0--x-----x--|--2--x--2--x--0--x--0--x--|
E|---0--x--2--x-----x-----x--|--0--x--0--x-----x-----x--|

     Em          A7    Bm7   Em          A7
e|---0--x--0--x--0--x--2--|--0--x--0--x--0-0-0-0-0-0----|
B|---0--x--0--x--2--x--3--|--0--x--0--x--2-2-2-2-2-2----|
G|---0--x--0--x--0--x--2--|--0--x--0--x--0-0-0-0-0-0----|
D|---2--x--2--x--2--x--4--|--2--x--2--x--2-2-2-2-2-2----|
A|---2--x--2--x--0--x--2--|--2--x--2--x--0-0-0-0-0-0----|
E|---0--x--0--x-----x-----|--0--x--0--x-----------------|


[Chorus]

e|-------x-------x-------x------x--|
B|---3---x---3---x---3---x---2--x--|
G|---2---x---2---x---0---x---2--x--| x4
D|---0---x-------x-------x---2--x--|
A|-------x-------x-------x---0--x--|
E|-------x---2---x---3---x------x--|

      Bm7   A7  G    D    G    A7   D
e|----2----0----3----2----3----0----2----|
B|----3----2----3----3----3----2----3----|
G|----2----0----0----2----0----0----2----|
D|----4----2----0----0----0----2----0----|
A|----2----0----2---------2----0---------|
E|--------------3---------3--------------|


[Verse 2]

e|-------x-------x-------x-------------|
B|---3---x---3---x---3---x---2---------|
G|---2---x---2---x---0---x---2-2h4p2---| x4
D|---0---x-------x-------x---2---------|
A|-------x-------x-------x---0---------|
E|-------x---2---x---3---x-------------|

e|-------x-------x-------x------x--|
B|---3---x---3---x---3---x---2--x--|
G|---2---x---2---x---0---x---2--x--| x4
D|---0---x-------x-------x---2--x--|
A|-------x-------x-------x---0--x--|
E|-------x---2---x---3---x------x--|


[Pre-Chorus]

     Em          A7    D        Em          A7
e|---0--x--0--x--0--x--2--x--|--0--x--0--x--0--x--0--x--|
B|---0--x--0--x--2--x--3--x--|--0--x--0--x--2--x--2--x--|
G|---0--x--0--x--0--x--2--x--|--0--x--0--x--0--x--0--x--|
D|---2--x--2--x--2--x--0--x--|--2--x--2--x--2--x--2--x--|
A|---2--x--2--x--0--x-----x--|--2--x--2--x--0--x--0--x--|
E|---0--x--2--x-----x-----x--|--0--x--0--x-----x-----x--|

     Em          A7    Bm7   Em          A7
e|---0--x--0--x--0--x--2--|--0--x--0--x--0-0-0-0-0-0----|
B|---0--x--0--x--2--x--3--|--0--x--0--x--2-2-2-2-2-2----|
G|---0--x--0--x--0--x--2--|--0--x--0--x--0-0-0-0-0-0----|
D|---2--x--2--x--2--x--4--|--2--x--2--x--2-2-2-2-2-2----|
A|---2--x--2--x--0--x--2--|--2--x--2--x--0-0-0-0-0-0----|
E|---0--x--0--x-----x-----|--0--x--0--x-----------------|


[Chorus]

e|-------x-------x-------x------x--|
B|---3---x---3---x---3---x---2--x--|
G|---2---x---2---x---0---x---2--x--| x4
D|---0---x-------x-------x---2--x--|
A|-------x-------x-------x---0--x--|
E|-------x---2---x---3---x------x--|


      Bm7   A7  G    D    G    A7   D
e|----2----0----3----2----3----0----2----|
B|----3----2----3----3----3----2----3----|
G|----2----0----0----2----0----0----2----|
D|----4----2----0----0----0----2----0----|
A|----2----0----2---------2----0---------|
E|--------------3---------3--------------|


[Solo]

e|------------------------------------------|
B|------------------------------------------|
G|--------7h9-7h9--/11--9--7h9-7------------|
D|---7h9-------------------------7h9-7h9-7--|
A|------------------------------------------|
E|------------------------------------------|

e|------------------------------------------|
B|----------------------10------------------|
G|--------7h9-7h9--/11------11\9--9p7--9p7--|
D|---7h9------------------------------------|
A|------------------------------------------|
E|------------------------------------------|

e|---10-----10-----10--12b--10~--12br-------|
B|---10h12--10h12--10-----------------------|
G|------------------------------------------|
D|------------------------------------------|
A|------------------------------------------|
E|------------------------------------------|

e|---10-----10-----10-----10---10--------------------------|
B|---10h12--10h12--10h12--10---12---------------------10~--|
G|---------------------------------9h11p9--9\7--9/11-------|
D|---------------------------------------------------------|
A|---------------------------------------------------------|
E|---------------------------------------------------------|

e|------10-10-10------9--9--9-------7-7-7-----5-5-5--------|
B|------12-12-12------10-10-10------8-8-8-----7-7-7--------|
G|---------------------------------------------------------|
D|---------------------------------------------------------|
A|---------------------------------------------------------|
E|---------------------------------------------------------|


[Chorus]

e|-------x-------x-------x------x--|
B|---3---x---3---x---3---x---2--x--|
G|---2---x---2---x---0---x---2--x--| x4
D|---0---x-------x-------x---2--x--|
A|-------x-------x-------x---0--x--|
E|-------x---2---x---3---x------x--|

      Bm7   A7  G    D    G    A7   D
e|----2----0----3----2----3----0----2----|
B|----3----2----3----3----3----2----3----|
G|----2----0----0----2----0----0----2----| x3
D|----4----2----0----0----0----2----0----|
A|----2----0----2---------2----0---------|
E|--------------3---------3--------------|

            
Submit corrections

↑ Back to top | Tablatures and chords for acoustic guitar and electric guitar, ukulele, drums are parodies/interpretations of the original songs. You may use it for private study, scholarship, research or language learning purposes only