» » »

Doors - People Are Strange Bass

Artists:  A B C D E F G H I J K L M N O P Q R S T U V W X Y Z # 

People Are Strange Bass

(ver. 3) Click to play this song!
Doors
 Rating:
4/5 (4 votes)

 People Are Strange lessons Tabs too difficult? Try these video lessons and learn fast
 
                Part 1
  G|----------------------4-|
  D|---4---4----------------|
  A|-2----------5-----0-2---|
  E|-----2----3---2-3-------|

Part 2
  G|-------------------------------------------|
  D|---44---4----44---4----44---4--------------|
  A|-2---------2---------2---------22-00-------|
  E|------2---------2---------2----------33-22-|

Part 3
  G|---------------------------------------------------|
  D|-----2-0---------2---2-------2---2-----1-4-2---2---|
  A|---2-----2---0-3---2-----0-3---2-----2-------2---2-|
  E|-0-------------------------------------------------|

Part 4
  G|-----------------------------------------------|
  D|-----2-0---------2---2-------2---2-----1-4-2---|
  A|---2-----2---0-3---2-----0-3---2-----2-------2-|
  E|-0---------------------------------------------|

Part 5
  G|-----4-2---------4-2-----------------------------|
  D|---4-----4-----4-----4-------2-0---------2-0-----|
  A|-2-----------2-------------2-----2-----2-----0-1-|
  E|-------------------------0-----------0-----------|

    -----4-2---------4-2-------------------|
    ---4-----4-----4-----4-------2-0-------|
    -2-----------2-------------2-----2-0---|
    -------------------------0-----------0-|

Part 6
  G|----------------------------------------------------|
  D|-----2-0---------2---2-------2---2-----1-4---2---2--|
  A|---2-----2---0-3---2-----0-3---2-----2-----2---2---2|
  E|-0--------------------------------------------------|

Part 7
  G|-------4--------------------------------------------|
  D|---2-4---4---------------4---4----4---4-------------|
  A|-2-------------5-----0-2--------2-----------5---5-0-|
  E|-------------3---2-3-------2--------2-----3---3-----|

    ------------------------------|
    ---4---4-----4---4-----4---4~-|
    -2---------2---------2--------|
    -----2---------2---------2----|


Play:
  part 1: 2x
  part 2: 1x
  part 3: 1x
  part 4: 1x
  part 5: 1x
  part 1: 2x
  part 2: 1x
  part 6: 1x
  part 4: 1x
  part 7: 1x
            
Submit corrections


        People Are Strange lessons Hard to play? Try these video lessons and learn fast People Are Strange lessons
        
↑ Back to top | Tablatures and chords for acoustic guitar and electric guitar, ukulele, drums are parodies/interpretations of the original songs. You may use it for private study, scholarship, research or language learning purposes only