» » »

Doors - People Are Strange Tabs

Artists:  A B C D E F G H I J K L M N O P Q R S T U V W X Y Z # 

People Are Strange Tabs

(ver. 3) Click to play this song!
Doors
 Rating:
4/5 (4 votes)

 People Are Strange lessons Tabs too difficult? Try these video lessons and learn fast
 
                d=down
u=up

------------|-----------------------------------------------------------|-----
------------|-----------------------------------------------------------|-----
------------|-------0-------------2-0---------------2-0-----------------|-----
------------|-----2-------------2-----------------2-----------------2---|-----
-2--0-------|---2------2p1p0--0--------2p1p0--0-0--------0h1h2----2-----|-----
-------3--0-|-0-------------------------------------------------2-----0-|-----
 repeat twice                                                                 

-7---7---7---7--3---3---3---3--7------|----------|----------------------------
-7-x-7-x-7-x-7--3-x-3-x-3-x-3--7--10b-|----------|----------------------------
-8-x-8-x-8-x-8--4-x-4-x-4-x-4--8------|----------|----------------------------
-9-x-9-x-9-x-9--5-x-5-x-5-x-5--9------|--4-2-----|----------------------------
-9-x-9-x-9-x-9--5-x-5-x-5-x-5--9------|--2-0-3-4-|----------------------------
-7---7---7---7--3---3---3---3--7------|------5-2-|----------------------------
 d u d u d u d  d u d u d u d  d                                              

-0-0-0-0--0-0-0--0-0--0-0--0-0--0-0-------0-|---------------------------------
-0-0-0-0--0-0-0--2-2--0-0--2-2--0-0-------0-|---------------------------------
-0-0-0-0--0-0-0--2-2--0-0--2-2--0-0-------0-|---------------------------------
-2-2-2-2--2-2-2--2-2--2-2--2-2--2-2--4-4--2-|---------------------------------
-2-2-2-2--2-2-2--0-0--2-2--0-0--2-2--4-4--2-|---------------------------------
-0-0-0-0--0-0-0-------0-0-------0-0--2-2--0-|---------------------------------
 d u d u  d u d  d d  d d  d d  d d  d d  d                                   

Solo
-------------------------------------------15---------------------------------
-----------------------------/12---------------12-15--------------------------
-14b-14p12p0-----------------------------------------14bh14-12--14-12----12---
-------------14p12p0-------------14bh14-12----------------------------14------
---------------------12b--14--------------------------------------------------
                                                                              

-14b-14b-14-12-12h14p12h------------------------------------------------------
-----------------------h14--12b-12b-12-10-10h12p12h---12b-12b-12-10-----------
--------------------------------------------------h12---------------12-10-12--
            
Submit corrections


        People Are Strange lessons Hard to play? Try these video lessons and learn fast People Are Strange lessons
        
↑ Back to top | Tablatures and chords for acoustic guitar and electric guitar, ukulele, drums are parodies/interpretations of the original songs. You may use it for private study, scholarship, research or language learning purposes only