» » »

Doors - Light My Fire Tabs

Artists:  A B C D E F G H I J K L M N O P Q R S T U V W X Y Z # 

Light My Fire Tabs

(ver. 1) Click to play this song!
Doors
 Rating:
4/5 (4 votes)

 Light My Fire lessons Tabs too difficult? Try these video lessons and learn fast
 
                --------------------------------------
   LIGHT MY FIRE- The Doors
  --------------------------------------

 >
 INTRO:

    G            D              F            Bb
 e|---------------------------|-----------1----------------|
 B|-0------0--3--1--0---------|--------1-----3-1-----------|
 G|----0-2-------------2--0---|-2----2-----------3-2-3--2--|
 D|---------------------------|----3-----------------------|
 A|---------------------------|----------------------------|
 E|---------------------------|----------------------------|

    Eb           Ab              A
 e|----------------------------|---------0-----0-|-----------0---2-||
 B|-----------1----------------|-----2-------2---|-----2---2-------||
 G|-1--0-1-3-----3-1-0---------|-2-2---2---2-----|-2-2---2-----2---||
 D|--------------------3-1--3--|-----------------|-----------------||
 A|----------------------------|-----------------|-----------------||
 E|----------------------------|-----------------|-----------------||

     Am7                    F#m
 You know that it would be untrue
     Am7                    F#m
 You know that I would be a liar
 Am7               F#m
 If I was to say to you
     Am7                    F#m
 Girl, we couldn't get much higher

 G             A         D
 Come on baby, light my fire
 G             A          D   B
 Come on baby, light my fire
 G              D         E
 Try to set the night on fire

 The time to hesitate is through
 No time to wallow in the mire
 Try now we can only lose
 And our love become a funeral pyre

 Come on baby, light my fire
 Come on baby, light my fire
 Try to set the night on fire, yeah

 SOLO: over Am Bm

 e|-3--5--|-7------8--7h8p7-5-----5-|-(5)-------7h8p7-5-----5-|
 B|-------|--------------------8----|---------8---------8-----|
 G|-------|-------------------------|-------------------------|
 D|-------|-------------------------|-------------------------|
 A|-------|-------------------------|-------------------------|
 E|-------|-------------------------|-------------------------|

 e|(5)----0-2h3p2-0-----0-|(0)-----------5--3--5--|-7--------8----7-|
 B|-----------------3-----|-----------------------|-----------------|
 G|-----------------------|-----------------------|-----------------|
 D|-----------------------|-----------------------|-----------------|
 A|-----------------------|-----------------------|-----------------|
 E|-----------------------|-----------------------|-----------------|

 e|-8p7p5----------|-------------------|--------------------|
 B|-------8--------|-7h8p7-5-----------|--------------------|
 G|----------------|---------7---------|-7h8p7p5------------|
 D|----------------|-------------------|---------7----------|
 A|----------------|-------------------|--------------------|
 E|----------------|-------------------|--------------------|

 e|--------------5h6h7-------|-------|-----5-----5--7--8-5-----5------|
 B|--------5h6h7-------7-----|-------|--------7-------------7------8--|
 G|--5h6h7-------------------|-* / --|-5h7----------------------------|
 D|--------------------------|--/ *--|--------------------------------|
 A|--------------------------|-------|--------------------------------|
 E|--------------------------|-------|--------------------------------|

 e|------------------------5-|(5)------------5-----|----------------|
 B|----5---------------------|-----7\5-------------|----------------|
 G|-7-----7h8p7-----5--7-----|-----------7---------|---5--7---------|
 D|--------------7-----------|-------------------7-|----------------|
 A|--------------------------|---------------------|----------------|
 E|--------------------------|---------------------|----------------|

 e|--8--5--8-5---8/------|---------|--------|---8--5--8-5---5--3--3--|
 B|--8--5--8-5---8/------|---------|--------|---8--5--8-5---5--3--3--|
 G|----------------------|---* /---|--* /---|------------------------|
 D|----------------------|--- / *--|-- / *--|------------------------|
 A|----------------------|---------|--------|------------------------|
 E|----------------------|---------|--------|------------------------|

 e|-3/5--5\3--3/5--5-----|-5-------0--1-|---3-----1h3p1--0------------|
 B|-3/5--5\3--3/5-----5--|--------------|----------------3--1h3p1p0---|
 G|----------------------|--------------|-----------------------------|
 D|----------------------|--------------|-----------------------------|
 A|----------------------|--------------|-----------------------------|
 E|----------------------|--------------|-----------------------------|

 e|---------------------|-------------------------------|---------5--7|
 B|---------------------|-------------------------------|-------------|
 G|-2-------4---2-0-----|-2h4p2p0----2h4p2p0----2h4p2p0-|-------------|
 D|-----------------2---|---------2----------2----------|-2-----------|
 A|---------------------|-------------------------------|-------------|
 E|---------------------|-------------------------------|-------------|

 e|---5----------------|-----------------5---7-|-/8---/10----|-/12----|
 B|------7-------5-----|-----------5--7--------|-------------|--------|
 G|------------------7-|(7)--5--7--------------|-------------|--------|
 D|--------------------|-----------------------|-------------|--------|
 A|--------------------|-----------------------|-------------|--------|
 E|--------------------|-----------------------|-------------|--------|

 e|-12--13-----15----13h15p13p12--|-10---8----10p8p7--------------|
 B|-------------------------------|-------------------10--8--10---|
 G|-------------------------------|-------------------------------|
 D|-------------------------------|-------------------------------|
 A|-------------------------------|-------------------------------|
 E|-------------------------------|-------------------------------|

 e|-7h8h10p8p7----------8h10p8p7-----|-12--13-----15---13h15p13p12---|
 B|------------10----------------10--|----------------------------15-|
 G|----------------------------------|-------------------------------|
 D|----------------------------------|-------------------------------|
 A|----------------------------------|-------------------------------|
 E|----------------------------------|-------------------------------|

 e|-7--8-----10----8h10p8-------|-12---13-------15-------15p13p12----|
 B|------------------------10---|----------------------------------15|
 G|-----------------------------|------------------------------------|
 D|-----------------------------|------------------------------------|
 A|-----------------------------|------------------------------------|
 E|-----------------------------|------------------------------------|

 e|------------------------------12---|-/17-------17\------|-------|
 B|-13h15p13p12-----------------------|--------------------|-------|
 G|-------------14---12---14----------|--------------------|-* / --|
 D|-----------------------------------|--------------------|--/ *--|
 A|-----------------------------------|--------------------|-------|
 E|-----------------------------------|--------------------|-------|

 e|---17-19-17-19-17----------17----------17----|
 B|------------------19-17-19----------------19-|
 G|------------------------------19-17-19-------|
 D|---------------------------------------------|
 A|---------------------------------------------|
 E|---------------------------------------------|

 e|-------17-19-21-17----17---17--|
 B|-17-19-------------19----------|
 G|-------------------------------|
 D|-------------------------------|
 A|-------------------------------|
 E|-------------------------------|

 e|-------------17-19-17----------17-----17-|
 B|-------17-19----------19-17-19-----------|
 G|-17-19-----------------------------------|
 D|-----------------------------------------|
 A|-----------------------------------------|
 E|-----------------------------------------|

 e|-------17--------17-19-21-19--------|
 B|------------17-----------------19---|
 G|-17-19------------------------------|
 D|------------------------------------|
 A|------------------------------------|
 E|------------------------------------|

 e|------17------------|---5------------5-|(5)---------------5-|
 B|-----------19-------|------------------|---------------8----|
 G|--------------------|-------7----------|--------------------|
 D|--------------------|------------------|--------------------|
 A|--------------------|------------------|--------------------|
 E|--------------------|------------------|--------------------|

 e|--7---8---7h8p7p5-----5-|(5)-------5-----7-|--8p7p5----------|
 B|------------------8-----|-------8----------|----7h8p7p5---5--|
 G|------------------------|------------------|------------7----|
 D|------------------------|------------------|-----------------|
 A|------------------------|------------------|-----------------|
 E|------------------------|------------------|-----------------|

 e|-----------5-----5--|-7---------8---/8------|--------5--------------|
 B|--------------8-----|---------------------8-|-----------7h8p7p5-5---|
 G|--------------------|-----------------------|--------------------7--|
 D|--------------------|-----------------------|-----------------------|
 A|--------------------|-----------------------|-----------------------|
 E|--------------------|-----------------------|-----------------------|

 e|-------5----------|----------5-----5--|--7----------8--------|
 B|----------7-----5-|(5)----------8-----|----------------------|
 G|-------------7----|-------------------|----------------------|
 D|------------------|-------------------|----------------------|
 A|------------------|-------------------|----------------------|
 E|------------------|-------------------|----------------------|

 e|-7h8p7p5--------5------|-------------------5----|-------|
 B|---------7-------------|-8p7p5------------------|-------|
 G|-----------------------|-------7----------------|-* / --|
 D|-----------------------|------------------------|- / *--|
 A|-----------------------|------------------------|-------|
 E|-----------------------|------------------------|-------|

 e|--------------------5--7-|-5----------5-----5--|-------7--------5--|
 B|-7h8p7p5------5--7-------|--------8------7-----|----5--7--5--8-----|
 G|---------7---------------|---------------------|-7-----------------|
 D|-------------------------|---------------------|-------------------|
 A|-------------------------|---------------------|-------------------|
 E|-------------------------|---------------------|-------------------|

 e|----5------------|-----------------------|------|------|
 B|-7---------------|-----------------------|------|------|
 G|-------7---------|-7b9-7b9-7b9-(9)7--5---|-* / -|-* / -|
 D|-----------------|-----------------------|- / *-|- / *-|
 A|-----------------|-----------------------|------|------|
 E|-----------------|-----------------------|------|------|

 e|----------------------------------|------|------------------------|
 B|-8b(10)-8b(10)-8b(10)-(10)8---5---|------|------------------------|
 G|----------------------------------|-* / -|-7b9-7b9-7b9-(9)7--5----|
 D|----------------------------------|- / *-|----------------------7-|
 A|----------------------------------|------|------------------------|
 E|----------------------------------|------|------------------------|

 e|-------------------|-------------------|----------------5--|
 B|-------5--7--5-----|-------------------|----5--7--8--7-----|
 G|-5--7-----------7--|-7--5--7--5--7--5--|-7-----------------|
 D|-------------------|-------------------|-------------------|
 A|-------------------|-------------------|-------------------|
 E|-------------------|-------------------|-------------------|

 e|-8--7--5-----------||
 B|----------8--7--5--||
 G|-------------------||
 D|-------------------||
 A|-------------------||
 E|-------------------||

 The time to hesitate is through
 No time to wallow in the mire
 Try now we can only lose
 And our love become a funeral pyre

 Come on baby, light my fire
 Come on baby, light my fire
 Try to set the night on fire, yeah

 You know that it would be untrue
 You know that I would be a liar
 If I was to say to you
 Girl, we couldn't get much higher

 G              A         D
 Come on baby, light my fire
 G              A        D
 Come on baby, light my fire
 F               C        D
 Try to set the night on fire
 F               C        D
 Try to set the night on fire
            
Submit corrections


        Light My Fire lessons Hard to play? Try these video lessons and learn fast Light My Fire lessons
        
↑ Back to top | Tablatures and chords for acoustic guitar and electric guitar, ukulele, drums are parodies/interpretations of the original songs. You may use it for private study, scholarship, research or language learning purposes only