» » »

Doors - Roadhouse Blues Bass

Artists:  A B C D E F G H I J K L M N O P Q R S T U V W X Y Z # 

Roadhouse Blues Bass

(ver. 1) Click to play this song!
Doors
 Rating:
4/5 (4 votes)

 Roadhouse Blues  lessons Tabs too difficult? Try these video lessons and learn fast
 
                (2)
Verse 
G:--------------------------------------------------------------
D:--------------------------------------------------------------
A:-------------------------5h6h7--------------------------------
E:-0-00-00-0-5h6h7-0-00-00-------------------------------------- 
Bridge 
G:--------------------------------------------------------------
D:--------------------------------------------------------------
A:--7-7--55-----------------------------------------------------
E:----------88-77----------------------------------------------- 

Chorus
G:--------------------------------------------------------------
D:-------------------5-5----------------------------------------
A:-------4-4-7-7-9-9-----9-7-5----------------------------------
E:--5-5--------------------------------------------------------- 

After chrous 

G:--------------------------------------------------------------
D:--------------------------------------------------------------
A:---2222222222--3-3-3-2----------------------------------------
E:--------------------------------------------------------------

this is my first tab, but I think it sounds better with the open E's for the verse
            
Submit corrections


        Roadhouse Blues  lessons Hard to play? Try these video lessons and learn fast Roadhouse Blues  lessons
        
↑ Back to top | Tablatures and chords for acoustic guitar and electric guitar, ukulele, drums are parodies/interpretations of the original songs. You may use it for private study, scholarship, research or language learning purposes only