» » »

Doors - People Are Strange Bass

Artists:  A B C D E F G H I J K L M N O P Q R S T U V W X Y Z # 

People Are Strange Bass

(ver. 2) Click to play this song!
Doors
 Rating:
4/5 (4 votes)

 People Are Strange lessons Tabs too difficult? Try these video lessons and learn fast
 
                People Are Strange - The Doors


The bass on this song is played by frequent Doors session
bassist Doug Lubahn on an electric bass guitar.

Tuning: EADG

0:19
G|-------------|--------------|----4------|
D|----4-----4--|----0---------|-----------|
A|-2-----------|----------0-1-|-2---------|
E|-------2-----|-3-----3------|-----------|

0:25
G|-------------|--------------|----4------|
D|----4-----4--|----0---------|-----------|
A|-2-----------|----------0-1-|-2---------|
E|-------2-----|-3-----3------|-----------|

0:31
G|-------------|--------------|--------------|
D|----4-----4--|----4-4----4--|----4-4----4--|
A|-2-----------|-2------------|-2------------|
E|-------2-----|--------2-----|--------2-----|

0:38
G|--------------|--------------|--------------|
D|--------------|-------2--0---|-------2----2-|
A|-2-20-0-------|----2-------2-|-0--3-----2---|
E|-------3-32-2-|-0------------|--------------|

0:44
G|--------------|----------------|--------------|
D|-------2----2-|----1-4-2---2---|-------2--0---|
A|-0--3-----2---|-2--------2---2-|----2-------2-|
E|--------------|----------------|-0------------|

0:50
G|--------------|--------------|--------------|
D|-------2----2-|-------2----2-|----1-4-2-----|
A|-0--3-----2---|-0--3-----2---|-2---------2--|
E|--------------|--------------|--------------|

0:56
G|-------4--2---|-------4--2---|--------------|
D|----4-------4-|----4-------4-|-------2--0---|
A|-2------------|-2------------|----2-------2-|
E|--------------|--------------|-0------------|

1:02
G|---------------|-------4--2---|-------4--2---|
D|-------2-0-----|----4-------4-|----4-------4-|
A|----2------0-1-|-2------------|-2------------|
E|-0-------------|--------------|--------------|

1:08
G|-------------------|--------------|-------------|
D|-------------------|--------------|----4-----4--|
A|---------7\5--5\---|--------------|-2-----------|
E|-0--5/7----------3-|-0------------|-------2-----|

1:14
G|--------------|----4------|-------------|
D|----0---------|-----------|----4-----4--|
A|----------0-1-|-2---------|-2-----------|
E|-3-----3------|-----------|-------2-----|

1:20
G|--------------|----4------|-------------|
D|----0---------|-----------|----4-----4--|
A|----------0-1-|-2---------|-2-----------|
E|-3-----3------|-----------|-------2-----|

1:26
G|-------------|-------------|--------------|
D|----4-----4--|----4-----4--|--------------|
A|-2-----------|-2-----------|-2-20-0-------|
E|-------2-----|-------2-----|-------3-32-2-|

1:32
G|-------------|--------------|--------------|
D|------2--0---|-------2----2-|-------2----2-|
A|-----------2-|-0--3-----2---|-0--3-----2---|
E|-0-----------|--------------|--------------|

1:38
G|-----------------|--------------|--------------|
D|---1-4---2---2---|-------2--0---|-------2----2-|
A|-2-----2---2---2-|----2-------2-|-0--3-----2---|
E|-----------------|-0------------|--------------|

1:44
G|--------------|----------4----|-------4-----|
D|-------2---2--|----1-4-2---2--|----4-----4--|
A|-0--3----2----|-2-------------|-2-----------|
E|--------------|---------------|-------------|

1:50
G|--------------|-------------|-------------|
D|----0---------|----4-----4--|----4-----4--|
A|----------0-1-|-2-----------|-2-----------|
E|-3-----3------|-------2-----|-------2-----|

1:56
G|--------------|-------------|-------------|
D|--------------|----4-----4--|----4-----4--|
A|----5-----5-0-|-2-----------|-2-----------|
E|-3-----3------|-------2-----|-------2-----|

2:02
G|-------------|
D|----4-----4--|
A|-2-----------|
E|-------2-----|
            
Submit corrections


        People Are Strange lessons Hard to play? Try these video lessons and learn fast People Are Strange lessons
        
↑ Back to top | Tablatures and chords for acoustic guitar and electric guitar, ukulele, drums are parodies/interpretations of the original songs. You may use it for private study, scholarship, research or language learning purposes only