» » »

Doors - People Are Strange Tabs

Artists:  A B C D E F G H I J K L M N O P Q R S T U V W X Y Z # 

People Are Strange Tabs

(ver. 2) Click to play this song!
Doors
 Rating:
4/5 (4 votes)

 People Are Strange lessons Tabs too difficult? Try these video lessons and learn fast
 
                Written/Performed by: The Doors

standard tuning - EADGBe -

INTRO

e|------------------------|
b|------------------------|
g|------------------------|
d|------------------------|
a|------------------------|
e|-7--5--3----------------|

VERSE

e|--------------------|---------------------|---------------| 
b|-----------0--------|---------------------|---------------|  
g|-----------0--------|---------------------|---------------|  
d|-------2-----2------|--------7--5---------|--------7--5~--|  
a|----2----------2----|------7------7-------|-----7-----7~--|  
e|-0----------------6-|---5-----------7--6--|--5--------7~--|  
                                                                
e|-----------------------------|                                
b|-----------------------------|                                
g|-----------------------------|                               
d|--------1----2-----9--7--5---|                               
a|-----2-------2-----9--7--5---|                               
e|--2----------0-----7--5--3---|                              

CHORUS

	B7 - Gmaj - B7 - B7
	Gmaj - B7 - B7 - B7 - B7

	* the B7 "stop" ends with 
	e|--7---|

FIRST SOLO (DISTORTION)

e|---7^\---7-7p5----------------7--12--15b^~--15p12----------------------|
b|---------------6p0^~~---0/6-----------------------15-15p12--10--8-10---|
g|-----------------------------------------------------------------------|
d|-----------------------------------------------------------------------|
a|-----------------------------------------------------------------------|
e|-----------------------------------------------------------------------|

e|----------------------------------------------------|
b|--------8-8-----------------------------------------|
g|---9-9-------9-9--11--11b^~-11p9-7-9p7--5p2b4-------|
d|----------------------------------------------------|
a|----------------------------------------------------|
e|----------------------------------------------------|

e|-------------------------------------------------------------|
b|--------------------------3----------------------------------|
g|--4b^ 4p2-----0--2--2--4~---4b-4p2---------------------------|
d|-----------4------------------------5--0--2------------------|
a|-------------------------------------------------------------|
e|-------------------------------------------------------------|
            
Submit corrections


        People Are Strange lessons Hard to play? Try these video lessons and learn fast People Are Strange lessons
        
↑ Back to top | Tablatures and chords for acoustic guitar and electric guitar, ukulele, drums are parodies/interpretations of the original songs. You may use it for private study, scholarship, research or language learning purposes only