Home » D » Def Leppard »

Def Leppard - Mirror Mirror Look Into My Eyes Tabs

Artists:  A B C D E F G H I J K L M N O P Q R S T U V W X Y Z # 

Mirror Mirror Look Into My Eyes Tabs

(ver. 1) Click to play this song!
Def Leppard
 Rating:
4/5 (4 votes)
                Mirror, Mirror (look into my eyes)
Def Leppard

intro:
E|------------------------------|----------|
B|-3-777-0-3--555-0-2--777-0-3--|-333-333--|   NOTE:second time you play
G|-2-000-0-0--000-0-0--000-0-0--|-222-222-.|x2      the riff, dont play the 
D|-0----------------------------|-000-000-.|        last part, replace it 
A|------------------------------|----------|        with not the sevens but
E|------------------------------|----------|        the fives

Verses:(soft part)
E|-2-----1-----|
B|-3--3--3--3--|
G|-2--3--2--3-.|x2
D|-0--0--0--0-.|
A|-------------|
E|-------------|

Verses: (agressive part)
E|--------------------------------------||   
B|-777-0-3--555-0-2--777-0-3--555-0-2---||   
G|-000-0-0--000-0-0--000-0-0--000-0-0--.||X2 
D|-------------------------------------.||   
A|--------------------------------------||   
E|--------------------------------------|| 

I dont know the refrain yet, but im workin on it!
happy pickin
            
Submit corrections

↑ Back to top | Tablatures and chords for acoustic guitar and electric guitar, ukulele, drums are parodies/interpretations of the original songs. You may use it for private study, scholarship, research or language learning purposes only