» » »

Def Leppard - Heaven Is Tabs

Artists:  A B C D E F G H I J K L M N O P Q R S T U V W X Y Z # 

Heaven Is Tabs

(ver. 3) Click to play this song!
Def Leppard
 Rating:
4/5 (4 votes)

 Heaven Is lessons Tabs too difficult? Try these video lessons and learn fast
 
                e]-------------------------------------------------------------------------
b]-----10----8-------------------10-11----10-----8------------------8------
g]-------10---10--10--10-10----10-10-10-----10----10--10--10-10-10----10---
d]--10-----10---10----------10----------------10----10------------10-------
a]-------------------------------------------------------------------------
E]-------------------------------------------------------------------------

e]-------------------------------------------------------------------------
b]----------------------------------------------------12--14--16---17b-17b-
g]-------------------------------------------------11-------11--11---------
d]---/9-7-5-7-5---5-----/9-7-5-7-5---5---7--9--/13-------------------------
a]--------------7------------------7----5--5-------------------------------
E]-------------------------------------------------------------------------

e]-14p11-------------------------------------------------------------------
b]-------12-----------------12h14--14b-slow release--14b*------------------
g]----------11/8-----8/9-11------------------------------------------------
d]----------------11-------------------------------------------------------
a]-------------------------------------------------------------------------
E]-------------------------------------------------------------------------


Please rate!!  

* vibrato

On last note, hold the bend while you use vibrato. 
            
Submit corrections


        Heaven Is lessons Hard to play? Try these video lessons and learn fast Heaven Is lessons
        
↑ Back to top | Tablatures and chords for acoustic guitar and electric guitar, ukulele, drums are parodies/interpretations of the original songs. You may use it for private study, scholarship, research or language learning purposes only