» » »

Def Leppard - Foolin Tabs

Artists:  A B C D E F G H I J K L M N O P Q R S T U V W X Y Z # 

Foolin Tabs

(ver. 1) Click to play this song!
Def Leppard
 Rating:
4/5 (4 votes)

 Foolin lessons Tabs too difficult? Try these video lessons and learn fast
 
                 Riff A-Intro (Guitar 1-Acoustic)
E---||------------------|--------------|-----0---------||-----------------------|
B---||------------------|-----------0--|-----------0---||-----------------------|
G---||*--------2--4-----|--------4-----|--5-----5-----*||-----------------------|
D---||*-----2--------2--|-----3--------|--------------*||-----------------------|
A---||---0--------------|--0-----------|---------------||-----------------------|
E---||------------------|--------------|---------------||-----------------------|


 2nd, 4th, 6th and 8th time   Riff B-Bridge(Guitar 2-distorted electric)
E------0---------||-----------------------|--------------------|----------------|
B---------0------||-----------------------|--------------------|----------------|
G---5--------5--*||--2-----------2--------|--2--------2--------|----------------|
D---------------*||--2--p--p-----2--p--p--|--2--p--p--2--p--p--|----------------|
A----------------||-----0--0--------0--0--|-----0--0-----0--0--|----------------|
E----------------||-----------------------|--------------------|----------------|


       ".....is anybody out there...."
E---------|--------------------|--------------------|----------|----------------|
B---------|--------------------|--------------------|----------|----------------|
G---5-----|--2--------2--------|--2--------2--------|--7\5~~~--|----------------|
D---5--5--|--2--p--p--2--p--p--|--2--p--p--2--p--p--|--7\5~~~--|----------------|
A---3--5--|-----0--0-----0--0--|-----0--0-----0--0--|----------|----------------|
E------3--|--------------------|--------------------|----------|----------------|

E---------------------|--------------------|--------|------------|--------------|
B---------------------|--------------------|--------|------------|--------------|
G---2--------2--------|--2--------2--------|--5-----|--2--9--10--|--------------|
D---2--p--p--2--p--p--|--2--p--p--2--p--p--|--5--5--|--2--9--10--|--------------|
A------0--0-----0--0--|-----0--0-----0--0--|--3--5--|--0--7--8---|--------------|
E---------------------|--------------------|-----3--|------------|--------------|

E-----------------||------------------------------------------------------------|
B-----------------||------------------------------------------------------------|
G---12------2-----||------------------------------------------------------------|
D---12------2~~~--||------------------------------------------------------------|
A---10------0-----||------------------------------------------------------------|
E-------3^--------||------------------------------------------------------------|

Two guitars play now

         Riff C1-PreChorus (Guitar 2)
E---||------------|------------||-----------------------------------------------|
B---||------------|------------||-----------------------------------------------|
G---||*-----------|-----------*||-----------------------------------------------|
D---||*--3--------|--5--------*||-----------------------------------------------|
A---||---3~~~~~~--|--5~~~~~~---||-----------------------------------------------|
E---||---1--------|--3---------||-----------------------------------------------|


Play C1 and C2 at same time


    Riff C2-PreChorus (Guitar 3-distorted)
E------------------|--------------|--------------|---------------||-------------|
B------------------|--------------|--------------|---------------||-------------|
G------3-----2~~~--|--3-----2~~~--|--5-----4~~~--|--5-----4~~~--*||-------------|
D---------3--------|-----3--------|-----5--------|-----5--------*||-------------|
A------------------|--------------|--------------|---------------||-------------|
E------------------|--------------|--------------|---------------||-------------|


                       Riff D-Chorus (Guitar 2)
E------------------||--------------------||--------------|----------------------|
B------------------||--------------------||--------------|----------------------|
G------------------||--------------------||*--7-5--7-----|----------------------|
D------------------||-----5--p--p--p--p--||*--7\5--7--p--|----------------------|
A------------------||-----3--3--3--3--3--||---5-3--5--5--|----------------------|
E------------------||--------------------||--------------|----------------------|


       ".....f-f-f-foolin'....."
E------------------|-----------|-------------|-----------------|----------------|
B------------------|-----------|-------------|-----------------|----------------|
G------------------|-----3-----|--7\5--7-----|-----------------|----------------|
D---p--p--p--p--p--|--3--3~~~--|--7\5--7--p--|--p--p--p--p--p--|----------------|
A---5--5--5--5--5--|--3--1-----|--5\3--5--5--|--5--5--5--5--5--|----------------|
E------------------|--1--------|-------------|-----------------|----------------|


                             LEGEND
E-------------||         ~ = vibrato
B-------------||         p = palm mute
G------------*||         \ = slide
D---3--5-----*||         ^ = bend 1/2 step
A---3--5~~~---||
E---1--3------||
            
Submit corrections


        Foolin lessons Hard to play? Try these video lessons and learn fast Foolin lessons
        
↑ Back to top | Tablatures and chords for acoustic guitar and electric guitar, ukulele, drums are parodies/interpretations of the original songs. You may use it for private study, scholarship, research or language learning purposes only