» » »

Def Leppard - Armageddon Tabs

Artists:  A B C D E F G H I J K L M N O P Q R S T U V W X Y Z # 

Armageddon Tabs

(ver. 1) Click to play this song!
Def Leppard
 Rating:
4/5 (19 votes)

 Armageddon lessons Tabs too difficult? Try these video lessons and learn fast
 
                By Def Leppard
[CLARK/COLLEN/ELLIOT/LANGE/SAVAGE]

Intro:
Steve C-Picked
E|---------------------------------------------------------------|
B|---------------------------------------------------------------|
G|7s9-9-9-9-9--7-6-7-6-7-6-7s9----7s9-9-9-9-9--7-6-7-6-7-6-------|
D|7s9-9-9-9-9--7-7-7-7-7-7-7s9----7s9-9-9-9-9--7-7-7-7-7-7-------|
A|---------------------------------------------------------------|
E|---------------------------------------------------------------|
Phil C
E|---------------------------------------------------------------|
B|---------------------------------------------------------------|
G|---------------------------------------------------------------|
D|---------------------------------------------------------------|
A|---------------------------------------------------------------|
E|---------------------------------------------------0-~---------|

Steve C-Picked
E|---------------------------------------------------------------|
B|---------------------------------------------------------------|
G|7s9-9-9-9-9--7-6-7-6-7-6-7s9----7s9-9-9-9-9--7-6-7-6-7-6-------|
D|7s9-9-9-9-9--7-7-7-7-7-7-7s9----7s9-9-9-9-9--7-7-7-7-7-7-------|
A|---------------------------------------------------------------|
E|---------------------------------------------------------------|
Phil C
E|---------------------------------------------------------------|
B|------------------------------5--------------------------------|
G|------------------------------4--------------------------------|
D|------------------------------2--------------------------------|
A|---------------------------------------------------------2-----|
E|----------------------------------------------------------3-0--|

Steve C-Picked
E|---------------------------------------------------------------|
B|---------------------------------------------------------------|
G|7s9-9-9-9-9--7-6-7-6-7-6-7s9----7s9-9-9-9-9--7-6-7-6-7-6-------|
D|7s9-9-9-9-9--7-7-7-7-7-7-7s9----7s9-9-9-9-9--7-7-7-7-7-7-------|
A|---------------------------------------------------------------|
E|---------------------------------------------------------------|
Phil C
E|---------------------------------------------------------------|
B|5----5------3--------------5----5------3----2------------------|
G|4----4------2------2-------4----4------2----2---2--------------|
D|2----2------0------2-------2----2------0----0---2--------------|
A|-------------------0----------------------------0--------------|
E|-0-0----0-0----0-0------0----0-0----0--------------------------|
Mute The Open E Notes

Verse: X2
Steve C-Picked
E|---------------------------------------------------------------------|
B|-----------------------------5-----------------------------------5---|
G|--------------------------4--4--------------------------------4--4---|
D|--------------------------2--2--------------------------------2--2---|
A|---------------------------------------------------------------------|
E|---------------------------------------------------------------------|
Phil C
E|---------------------------------------------------------------------|
B|---------------------------------------------------------------------|
G|---------------------------------------------------------------------|
D|---------------------------------------------------------------------|
A|---5---4-2-------------------------4--4-5-0-2------------------------|
E|00---00----3-4-00000000000000000000-00--------00000000000000000000---|
Mute The Open E Notes

Pre-Chorus:
Steve (play X2)
E|--------------------------------------------------|
B|-5-----5------3--------------5----5------3--------|
G|-4-----4------2------2-------4----4------2--------|
D|-2-----2------0------2-------2----2------0--------|
A|---------------------0----------------------2-----|
E|---0-0----0-0----0-0------0----0-0---0--0----3B4--|

Phil C
E|--------------------------------------------------|
B|-5-----5------3--------------5----5------3--------|
G|-4-----4------2------2-------4----4------2--------|
D|-2-----2------0------2-------2----2------0--------|
A|---------------------0----------------------2-----|
E|-0-0-0-0--0-0----0-0------0--0-0-0---0--0----3B4--|

Steve C  (play X2)
E|-------------------|
B|---5------5------5-|
G|-4-4----4-4----4-4-|
D|-2-2-22-2-2-22-2-2-|
A|-------------------|
E|-------------------|
Mute The 2s in between
And phil plays verse riff with the last accents

Phil C
E|------------------------------|
B|---5----5----5----5----5----5-|
G|-4-4--4-4--4-4--4-4--4-4--4-4-|
D|-2-2--2-2--2-2--2-2--2-2--2-2-|
A|------------------------------|
E||---------|---------|---------|
Steve plays E5 with open e (play when i got a |,
strum once and don't ring)

Both Guitars
E|--------------------------------------------|
B|-----------------5--4-54--------5--4-5-4-5--|
G|2----------4-~---4--4-44--4-~---4--4-4-4-4--|
D|2---2-~----4-~---6--4-64--4-~---6--4-6-4-6--|
A|0---2-~----2-~------------2-~---------------|
E|--3-0-~-------------------------------------|

Chorus:
Steve C (may not be accurate, but close)
  C       G       D          A      B C       G       D         A       B
E|----------------------2-----------------------------------2-------------|
B|----3-------3-------3------2------------3-------3-------3-------2-------|
G|--0---0---0---0---2-----2----2--2-0---0---0---0---0---2-----2-----2---0-|
D|----------------0--------------2--x-----------------0---------2-----2-x-|
A|3---------------------------------2-3-------------------------0-------2-|
E|--------3-----------------------------------3---------------------------|

Phil C (LET RING)
  C       G       D          A      B C       G       D         A       B
E|------------------------------------------------------------------------|
B|------------------------------------------------------------------------|
G|---------------------------2--------------------------------------------|
D|------------------------------------------------------------------------|
A|3---------------5-----------------2-3--------------5----------0-------2-|
E|--------3-----------------------------------3---------------------------|

Steve C
  C       G       D          A      B C       G       D               E
E|----------------------2-----------------------------------2-------------|
B|----3-------3-------3------2------------3-------3-------3-------3~------|
G|--0---0---0---0---2-----2----2--2-0---0---0---0---0---2-----2~---2~-----|
D|----------------0--------------2--x-----------------0-------0~------222-|
A|3---------------------------------2-3-------------------------------222-|
E|--------3-----------------------------------3-----------------------0-0-|

Phil C
  C       G       D          A      B C       G       D         A       B
E|------------------------------------------------------------------------|
B|------------------------------------------------------------------------|
G|---------------------------2--------------------------------------------|
D|--------------------------------------------------------------------222-|
A|3---------------5-----------------2-3--------------5-------5--------222-|
E|--------3-----------------------------------3-----------------------0-0-|

THEN ITS THE MAIN RIFF, PHIL DOES FIRST HALF OF HIS THIRD BAR 3X THEN PLAY THE OTHER 
HALF, THEN VERSE

PRE-CHORUS
THE ONLY DIFFERENCE IS THIS LICK THAT STEVE DOES IN THE FIRST PART
E|------------------------------|
B|--------5-5V--55/------5--5---|
G|--2-H-4-----------2-H-4-----4/|
D|------------------------------|
A|------------------------------|
E|------------------------------|

THEN CHORUS

BRIDGE
Steve C
E|---------------------------------------|
B|-9-9-9-9-9-10109~----5----5------------|
G|-9-9-9-9-9-9-9-9~--4-4--4-4---2--------|
D|-9-9-9-9-9-9-9-9~--2-2--2-2---2-----2--|
A|------------------------------0-----2--|
E|---------------------------------3--0--|
Phil C
E|---------------------------------------|
B|---------------------5----5------------|
G|-------------------4-4--4-4---2--------|
D|-------------------2-2--2-2---2-----2--|
A|------------------------------0-----2--|
E|---------------------------------3--0--|

SOLO
REMEMBER I DON'T HAVE THE SOLOS
Phil C
E|---------------------------------------|
B|---------------------------------------|
G|---------------------------2-----------|
D|-2-2----2-2----2-2----2-2--2------2-~--|
A|-2-2-22-2-2-22-2-2-22-2-2--0------2-~--|
E|-0-0-00-0-0-00-0-0-00-0-0-----3---0-~--|
MUTE THE 2 NOTE CHORDS

BRIDGE: PHIL RINGS OUT E5
Steve C (LET RING)
E|--0--0--0--0--0--0--0--0--0--0--0---------------------------------------|
B|-0--0--0--0--0--0--0--0--0--0--0----------------------------------------|
G|9--8--6--4--2--1--2--4--4--2--1--2~~------------------------------------|
D|------------------------------------------------------------------------|
A|------------------------------------------------------------------------|
E|-----------------------------------------------------0-0-00000000000----|
                                                      THIS IS PHIL'S PART

Steve C
E|------------0-------------------------------------------------------------|
B|5-5~--------0-------------------------------------------------------------|
G|4-4~----2~------4444444444444444444444~444444444444444444444444444444-----|
D|--2~----2~--2~--4444444444444444444444~444444444444444444444444444444-----|
A|--------0~--2~--2222222222222222222220~222222222222222222222222222222-----|
E|--0~--------0~------------------------------------------------------------|
             MUTE|---------------------   |---------------------------------|
PHIL C
E|------------0~------------------------------------------------------------|
B|5-5~--------0~------------------------------------------------------------|
G|4-4~----2~----------------------------------------------------------------|
D|--2~----2~--2~--444444444444444--4----444444444444444444444444444--4------|
A|--------0~--2~--22222222222222-2--2--022222222222222222222222222-2--2-----|
E|--0~--------0~------------------------------------------------------------|
             MUTE|----------------        |---------------------------------|

STEVE C
E|--------77--77-------------------|
B|--------77--77-7-----------------|
G|4-~---9B--9B---9B11--------------|
D|4-~------------------------------|
A|2-~------------------------------|
E|---------------------------------|
                     |DON'T KNOW
PHIL C                     THIS BIT|
E|---------------------------------|
B|------5--4-54--------5--4-5-4-5--|
G|4-~---4--4-44--4-~---4--4-4-4-4--|
D|4-~---6--4-64--4-~---6--4-6-4-6--|
A|2-~------------2-~---------------|
E|---------------------------------|

THEN THE CHORUS

END BIT
STEVE C
E|---------------------------------|
B|---------------------------------|
G|555---7~----555------------------|
D|555-5-7~----555-5-9-9-7-7-7-7----|
A|333-5-5~----333-5-7-7-5-5-4-4----|
E|----3-----------3----------------|

PHIL C
E|---------------------------------|
B|---------------------------------|
G|555---7~----555------------------|
D|555-5-7~----555-5----------------|
A|333-5-5~----333-5--5-HAMONIC-----|
E|----3-----------3----------------|
                     USE WHAMMY BAR

OUTRO:
STEVE C (let ring)
E|---------------------------------|
B|---------------------------------|
G|---------------------------------|
D|5-5-5-5-7-7-5-5------------------|
A|3-3-5-5-5-5-0-2------------------|
E|----3-3--------------------------|

AGAIN, PHIL'S SOLO IS UNKNOWN
PLAY TILL FADE OUT

THANK YOU FOR TRYING OUT MY FIRST TAB
ANY COMMENTS, MAKE ONE AND REFER TO MY PROFILE
OKAY, CHEERS
            
Submit corrections


        Armageddon lessons Hard to play? Try these video lessons and learn fast Armageddon lessons
        
↑ Back to top | Tablatures and chords for acoustic guitar and electric guitar, ukulele, drums are parodies/interpretations of the original songs. You may use it for private study, scholarship, research or language learning purposes only