» » »

Def Leppard - Answer To The Master Tabs

Artists:  A B C D E F G H I J K L M N O P Q R S T U V W X Y Z # 

Answer To The Master Tabs

(ver. 1) Click to play this song!
Def Leppard
 Rating:
4.3/5 (6 votes)

 Answer To The Master lessons Tabs too difficult? Try these video lessons and learn fast
 
                -------------------------------------------------------------------------------
-------------------------------------------------------------------------------

Tuning: EADGBe

RIFF 1 (4x)

e|---------------------------------------------------------------------------|
B|---------------------------------------------------------------------------|
G|-------------------7--------------------------7----------------------------|
D|-----------7---7h9---9--9-------------7---7h9---9--------------------------|
A|-------5h7---9--------------------5h7---9-------------5--7--9--------------|
E|---5h7------------------------5h7---------------------3--5--7--------------|

RIFF 2 (2x)
e|---------------------2-----------------------------------------------------|
B|----------3----------3----------2------------------------------------------|
G|----------4----------2----------2----------1-------------------------------|
D|----------4----------0----------2----------2-------------------------------|
A|----------2---------------------0----------2-------------------------------|
E|-------------------------------------------0-------------------------------|


RIFF 1 (2x)
e|---------------------------------------------------------------------------|
B|---------------------------------------------------------------------------|
G|-------------------7--------------------------7----------------------------|
D|-----------7---7h9---9--9-------------7---7h9---9--------------------------|
A|-------5h7---9--------------------5h7---9-------------5--7--9--------------|
E|---5h7------------------------5h7---------------------3--5--7--------------|

RIFF 2 (2x)
guitar 1
e|----------------------2----------------------------------------------------|
B|----------3-----------3-----------2----------------------------------------|
G|----------4-----------2-----------2-----------1----------------------------|
D|----------4-----------0-----------2-----------2----------------------------|
A|----------2-----------------------0-----------2----------------------------|
E|----------------------------------------------0----------------------------|
guitar 2
e|---------------------------------------------------------------------------|
B|---------------------------------------------------------------------------|
G|--------------6-7-7-------7-6-2-------6-7-9-------7-6-4--------------------|
D|---------------------------------------------------------------------------|
A|---------------------------------------------------------------------------|
E|---------------------------------------------------------------------------|

RIFF 1 (2x)
e|---------------------------------------------------------------------------|
B|---------------------------------------------------------------------------|
G|-------------------7--------------------------7----------------------------|
D|-----------7---7h9---9--9-------------7---7h9---9--------------------------|
A|-------5h7---9--------------------5h7---9-------------5--7--9--------------|
E|---5h7------------------------5h7---------------------3--5--7--------------|

RIFF 3 (4x)
e|---------------------------------------------------------------------------|
B|---------------------------------------------------------------------------|
G|---------------------------------------------------------------------------|
D|----------------5----------------------------------------------5-----7-----|
A|---0--0--0h5h7----7--0h5h7----7---7----------------------------3-----5-----|
E|------------------------------5---5----------------------------------------|

SOLO
intro dual guitar (2x)
e|----------14p12----16p12----14p12----17p12----16p12----14p12----16p12------|
B|---12-12--------12-------12-------12-------12-------12-------12-------12---|
G|---------------------------------------------------------------------------|
D|---------------------------------------------------------------------------|
A|---------------------------------------------------------------------------|
E|---------------------------------------------------------------------------|

e|----------14p12----16p12----14p12----17p12----16p12----14p12----16p12------|
B|---12-12--------12-------12-------12-------12-------12-------12-------12---|
G|---------------------------------------------------------------------------|
D|---------------------------------------------------------------------------|
A|---------------------------------------------------------------------------|
E|---------------------------------------------------------------------------|

e|----------14p12----16p12----14p12----17p12----16p12----14p12----16p12------|
B|---13-13--------12-------12-------12-------12-------12-------12-------12---|
G|---------------------------------------------------------------------------|
D|---------------------------------------------------------------------------|
A|---------------------------------------------------------------------------|
E|---------------------------------------------------------------------------|

e|----------14p12----16p12----14p12----17p12----16p12----14p12----16p12------|
B|---12-12--------12-------12-------12-------12-------12-------12-------12---|
G|---------------------------------------------------------------------------|
D|---------------------------------------------------------------------------|
A|---------------------------------------------------------------------------|
E|---------------------------------------------------------------------------|

main single guitar
e|----------------------------------------14-13b--17-17-17-17-17-16----------|
B|----------------------------------15b-----------------------------17-------|
G|---13-13~--13-14-14b--13-14-13-14------------------------------------16----|
D|---------------------------------------------------------------------------|
A|---------------------------------------------------------------------------|
E|---------------------------------------------------------------------------|

e|---------------------------------------------------------------------------|
B|---------------------------------------------------------------------------|
G|-----11----13p11h13p11h13---11p9h11p9h11---9p7h9p7h9---7p5h7p5h7----5~-----|
D|---------------------------------------------------------------------------|
A|---------------------------------------------------------------------------|
E|---------------------------------------------------------------------------|

e|----------------14-19-16---------------------------------------------------|
B|-------------17----------17------------------------------------------------|
G|-----14---16----------------16-14\13-14-13---------------------------------|
D|------------------------------------------14---9---------------------------|
A|---------------------------------------------------------------------------|
E|---------------------------------------------------------------------------|

e|---------------------------------------------------------------------------|
B|---------------------------------------------------------------------------|
G|-------9----9-11-9h11-11b--11-9-------14hb14----15p14p12-----15p14p12------|
D|--9h11---11----------------------12----------------------14-----------14---|
A|---------------------------------------------------------------------------|
E|---------------------------------------------------------------------------|

e|---------------------------------------------------------------------------|
B|-------------------------------------------------------------15b-14-15-----|
G|----15p14p12----15p14p12----15p14p12-----12--14--14hb-14hb-----------------|
D|-------------14----------14----------14------------------------------------|
A|---------------------------------------------------------------------------|
E|---------------------------------------------------------------------------|

e|---------------------------------------------------------------------------|
B|---15-12-15-12----12----------12-------------------------------------------|
G|---------------14----14-13-14----14-13-14-14b------------------------------|
D|---------------------------------------------------------------------------|
A|---------------------------------------------------------------------------|
E|---------------------------------------------------------------------------|

e|--------------15-14-12-----------------------------------------------------|
B|-----------------------15-14-12--------------------------------------------|
G|-----13-14----------------------14-13--14b-14b---14p13---------------------|
D|-------------------------------------------------------14------------------|
A|---------------------------------------------------------------------------|
E|---------------------------------------------------------------------------|

RIFF 4
e|---------------------------------------------------------------------------|
B|---------------------------------------------------------------------------|
G|---------------------------------------------------------------------------|
D|-----9-----5-----4---4-5-6-9-----2-----9-----------------------------------|
A|-----7-----3-----2---2-3-4-7-----0-----7-----------------------------------|
E|---------------------------------------------------------------------------|

RIFF 2
guitar 1
e|----------------------2----------------------------------------------------|
B|----------3-----------3-----------2----------------------------------------|
G|----------4-----------2-----------2-----------1----------------------------|
D|----------4-----------0-----------2-----------2----------------------------|
A|----------2-----------------------0-----------2----------------------------|
E|----------------------------------------------0----------------------------|
guitar 2
e|---------------------------------------------------------------------------|
B|---------------------------------------------------------------------------|
G|--------------6-7-7-------7-6-2-------6-7-9-------7-6-4--------------------|
D|---------------------------------------------------------------------------|
A|---------------------------------------------------------------------------|
E|---------------------------------------------------------------------------|

RIFF 1 (2x)
e|---------------------------------------------------------------------------|
B|---------------------------------------------------------------------------|
G|-------------------7--------------------------7----------------------------|
D|-----------7---7h9---9--9-------------7---7h9---9--------------------------|
A|-------5h7---9--------------------5h7---9-------------5--7--9--------------|
E|---5h7------------------------5h7---------------------3--5--7--------------|


| /  slide up
| \  slide down
| h  hammer-on
| p  pull-off
| ~  vibrato
| +  harmonic
| x  Mute note
| b  bend (full)
| hb bend (half)
===============================================================================
            
Submit corrections


        Answer To The Master lessons Hard to play? Try these video lessons and learn fast Answer To The Master lessons
        
↑ Back to top | Tablatures and chords for acoustic guitar and electric guitar, ukulele, drums are parodies/interpretations of the original songs. You may use it for private study, scholarship, research or language learning purposes only