» » »

Def Leppard - Another Hit And Run Tabs

Artists:  A B C D E F G H I J K L M N O P Q R S T U V W X Y Z # 

Another Hit And Run Tabs

(ver. 2) Click to play this song!
Def Leppard
 Rating:
4.2/5 (5 votes)

 Another Hit And Run lessons Tabs too difficult? Try these video lessons and learn fast
 
                -------------------------------------------------------------------------------
                                                Another Hit and Run- Def Leppard
-------------------------------------------------------------------------------

The rest is coming soon.  Updated May 16, 2012

Tuning: Standard

Note:  * means to palm mute.

Intro:

Both Guitars
e|------------------------------------------------|
B|------------------------------------------------|
G|-2-2-2---------------2-2-2---------------2-2-2--|
D|-2-2-2-let it ring---2-2-2-let it ring---2-2-2--|
A|-0-0-0---------------0-0-0---------------0-0-0--|
E|------------------------------------------------|

1st guitar
e|-15-15-15--15-15-15-15-15-15-15-15\---15-15-15-15-15-15-15-15-15-15-15\-|
B|-13-13-13--12-12-12-15-15-15-13-13\---13-13-13-12-12-12-15-15-15-17-17\-|
G|------------------------------------------------------------------------|
D|------------------------------------------------------------------------|
A|------------------------------------------------------------------------|
E|------------------------------------------------------------------------|

2nd guitar
e|------------------------------------------------------------------------|
B|------------------------------------------------------------------------|
G|----------------------------------2-2-2--------------------------2-2-2--|
D|----------------------------------2-2-2--------------------------2-2-2--|
A|-2-------------------------0------0-0-0------2--3----------------0-0-0--|
E|-----3------------------------------------------------------1-----------|

1st guitar
e|-15-15-15--15-15-15-15-15-15-15-15\---15-15-15-15-15-15-15-15-15-15-15\-|
B|-13-13-13--12-12-12-15-15-15-13-13\---13-13-13-12-12-12-15-15-15-17-17\-|
G|------------------------------------------------------------------------|
D|------------------------------------------------------------------------|
A|------------------------------------------------------------------------|
E|------------------------------------------------------------------------|

2nd guitar
e|------------------------------------------------------------------------|
B|------------------------------------------------------------------------|
G|----------------------------------2-2-2------------------------------5--|
D|----------------------------------2-2-2------------------------------5--|
A|-2-------------------------0------0-0-0------2---3-------------------3--|
E|-----3------------------------------------------------------------------|

1st Guitar
e|-----------------------------------------------------------------------------|
B|-----------------------------------------------------------------------------|
G|--5-----4-----7-----5--2-----5----4----7----5--2-----5----4----7-----5--2----|
D|----2-----2-----5--------2-----2----2----5-------2-----2----2----5--------2--|
A|0-----0-----0-----0--------0-----0----0----0-------0-----0----0----0--------0|
E|-----------------------------------------------------------------------------|

2nd Guitar
e|-----------------------------------------------------------------------------|
B|-----------------------------------------------------------------------------|
G|-----------------------------------------------------------------------------|
D|-----------------------------------------------------------------------------|
A|-----------------------------------------------------------------------------|
E|-----------------------------------------------------------------------------|

1st Guitar
e|----------------------------|
B|----------------------------|
G|5-----4-----7-----5--2------|
D|--2-----2-----5--------2----|x5
A|----0-----0-----0--------0--|
E|----------------------------|

2nd guitar
e|----------------------------|
B|----------------------------|
G|---------------------2-2-2--|
D|---------------------2-2-2--|x5
A|---------------------0-0-0--|
E|----------------------------|

Both Guitars (don't let it ring)
e|---------------------------------------------------------------------------|
B|---------------------------------------------------------------------------|
G|--5----4----7--------2-2-2-----5---4---7---------2-2-2---------------------|x2
D|--2----2----5--------2-2-2-----2---2---5----3hb--2-2-2---------------------|
A|0----0----0----0-3hb-0-0-0---0---0---0----0------0-0-0---------------------|
E|---------------------------------------------------------------------------|
  *    *    *    *             *   *   *    *



Verse: (don't let it ring)

1st guitar

e|---------------------------------------------------------------------------|
B|---------------------------------------------------------------------------|
G|--5---4----7----------2-2-2-----5----4----7--------2-2-2-------------------|
D|--2---2----5----------2-2-2-----2----2----5---3hb--2-2-2-------------------|x3
A|0---0----0----0--3hb--0-0-0--0----0-----0---0------0-0-0-------------------|
E|---------------------------------------------------------------------------|
  *   *    *    *              *    *     *   *

2nd guitar
 
e|---------------------------------------------------------------------------|
B|---------------------------------------------------------------------------|
G|---------------------2-2-2-----5---4----7---------2-2-2--------------------|
D|---------------------2-2-2-----2---2----5----3hb--2-2-2--------------------|x3
A|0-0-0-0-0-0-0-0--3hb-0-0-0--0----0----0----0------0-0-0--------------------|
E|---------------------------------------------------------------------------|
  * * * * * * * *             *    *    *    *
Both Guitars
e|---------------------------------------------------------------------------|
B|---------------------------------------------------------------------------|
G|-----------------7--------------------------------7------------------------|
D|------7-7-7-2----5--7--2--------------9-9-9-7-----5-7-5--------------------|
A|------5-5-5-0-------5--0--------------7-7-7-5-------5-3--------------------|
E|2-3-------------------------0-2-3------------------------------------------|


Chorus: Both guitars
e|---------------------------------------------------------------------------|
B|---------------------------------------------------------------------------|
G|2-2-2----5---4----7----------2-2-2-----5----4----7--------2-2-2------------|2x
D|2-2-2----2---2----5----------2-2-2-----2----2----5---3hb--2-2-2------------|
A|0-0-0--0---0----0----0--3hb--0-0-0--0----0-----0---0------0-0-0------------|
E|---------------------------------------------------------------------------|
         *   *    *    *              *    *     *   *
Verse: 2

1st guitar

e|---------------------------------------------------------------------------|
B|---------------------------------------------------------------------------|
G|--5---4----7----------2-2-2-----5----4----7--------2-2-2-------------------|
D|--2---2----5----------2-2-2-----2----2----5---3hb--2-2-2-------------------|x3
A|0---0----0----0--3hb--0-0-0--0----0-----0---0------0-0-0-------------------|
E|---------------------------------------------------------------------------|
  *   *    *                   *    *     *   *
2nd guitar
 
e|---------------------------------------------------------------------------|
B|---------------------------------------------------------------------------|
G|---------------------2-2-2-----5---4----7---------2-2-2--------------------|
D|---------------------2-2-2-----2---2----5----3hb--2-2-2--------------------|x3
A|0-0-0-0-0-0-0-0--3hb-0-0-0--0----0----0----0------0-0-0--------------------|
E|---------------------------------------------------------------------------|
  * * * * * * * *             *    *    *    *
Both Guitars
e|---------------------------------------------------------------------------|
B|---------------------------------------------------------------------------|
G|-----------------7--------------------------------7------------------------|
D|------7-7-7-2----5--7--2--------------9-9-9-7-----5-7-5--------------------|
A|------5-5-5-0-------5--0--------------7-7-7-5-------5-3--------------------|
E|2-3-------------------------0-2-3------------------------------------------|

Please Rate and Comment. I accept criticism to
************************************

| /   slide up
| \   slide down
| h   hammer-on
| p   pull-off
| ~   vibrato
| +   harmonic
| x   Mute note
| b   Bend
| pb  Pre-bend
| br  Bend release
| pbr Pre-bend release
| brb Bend release bend

************************************
            
Submit corrections


        Another Hit And Run lessons Hard to play? Try these video lessons and learn fast Another Hit And Run lessons
        
↑ Back to top | Tablatures and chords for acoustic guitar and electric guitar, ukulele, drums are parodies/interpretations of the original songs. You may use it for private study, scholarship, research or language learning purposes only