» » »

Bryan Adams - Right Here Waiting For You Tabs

Artists:  A B C D E F G H I J K L M N O P Q R S T U V W X Y Z # 

Right Here Waiting For You Tabs

(ver. 1) Click to play this song!
Bryan Adams
 Rating:
4/5 (4 votes)

 Right Here Waiting For You lessons Tabs too difficult? Try these video lessons and learn fast
 
                (Intro)
Tuning: Standard

This is my version of the introduction to one of my favourite songs by Bryan Adams. ENJOY!

e|--------3-3-1-0-------------0-1-0-------------0-------------0---|
B|------1----------3------3-3------------1-1-3----3--1--0-----1---|
G|----0-----------------0--------------2------------------2---0---|
D|--------------------0--------------2------------------------2---|
A|--3-----------------------------0-------------0----3--------3---|
E|-----------------3------------------------------------------x---|

e|--3-3-1-0-------------0-1-0------------0-1---------0-------------|
B|-----------3------3-3------------1-1-3-----3-1-0---1-------------|
G|----------------0--------------2-------------------0-------------|
D|--------------0--------------2---------------------2-------------|
A|--------------------------0------------------------3-------------|
E|-----------3---------------------------------------x-------------|

Basically the chords played in this intro, which is also the chorus, is:

C  G  Am  F  C
            
Submit corrections


        Right Here Waiting For You lessons Hard to play? Try these video lessons and learn fast Right Here Waiting For You lessons
        
↑ Back to top | Tablatures and chords for acoustic guitar and electric guitar, ukulele, drums are parodies/interpretations of the original songs. You may use it for private study, scholarship, research or language learning purposes only