» » »

Bryan Adams - Black Pearl Tabs

Artists:  A B C D E F G H I J K L M N O P Q R S T U V W X Y Z # 

Black Pearl Tabs

(ver. 2) Click to play this song!
Bryan Adams
 Rating:
4/5 (4 votes)

 Black Pearl lessons Tabs too difficult? Try these video lessons and learn fast
 
                Bryan Adams
Black Pearl


Intro: 

   F#7(no3rd)
|--------------------------------------|
|--5-5-5-5------5-5--5-----------------|
|--6-6-6-6------6-6--4-----------------|
|--4-4-4-4------4-4--4---6--4--2-2---4-|
|--------------------------------------|  
|--------------------------------------|

  
|-----------------------|
|-----------------------|
|-----------------------|
|-----------------------| X4
|------4-4-4-4-4-4-4-4--|
|------2-2-4-5-2-2-0-2--|

|--------------------------------------|
|--5-5-5-5---5-5--5--5-5-5-5\----------|
|--6-6-6-6---6-6--6--6-6-6-6\----------|
|--4-4-4-4---4-4--4--4-4-4-4\----------|
|--------------------------------------|
|--------------------------------------|


Verse 1:
(play this riff throughout all verses and chorus)
|-----------------|----------------------|
|-----------------|----------------------|
|-----------------|----------------------|
|-----------------|----------------------|
|-0-0-0-0-0-0-0-0-|-2-2-4-5-2-2-0-2------|
|-0-0-2-3-0-0-0-0-|----------------------|


F#7(no3rd)
Deep down in Mississippi
I found my sweet delta blues.
She weaved a little southernly,
Made a little voodoo.
          E
She was born the bright side of midnight
When her mama was seventeen.
She was a hot blooded, God fearin' gospel girl,
The finest that I'd ever seen.
Oh.

Bridge:
C#                  D    
She's black coffee. Little bit o' cream;
A                           E   
Sweet brown sugar, my midnight dream.

E|---1--1--5--4--1---|


Chorus:
        F#7(no3rd)
Black Pearl,
Yeah, my kinda girl.
Just the kind of thing to rock my world.
Black Pearl,
She's my kinda girl.


Verse 2 (same as verse 1):

Met her in a dixie diner,
Put on the southern hospitality.
I can still smell her sweet molasses
Running all over me.
We started rollin' like a river,
Like a twister tearin' through the town.
We we're tongue-tied, satisfied, southern fried.
As she drove this ol' dixie down.


Bridge (same as before)


Middle 8:

B
  Yeah, she's alright. Yeah, she's okay.
C#
   Well, makin' love all night. 
                 D   
Yeah, really made my day.


Verse 3 & Bridge:(same as before)(intrumental)


Chorus: (repeat 3 times and fade)


Rob.k
-Dressed2kill
            
Submit corrections


        Black Pearl lessons Hard to play? Try these video lessons and learn fast Black Pearl lessons
        
↑ Back to top | Tablatures and chords for acoustic guitar and electric guitar, ukulele, drums are parodies/interpretations of the original songs. You may use it for private study, scholarship, research or language learning purposes only