Home » B » Bring Me The Horizon »

Bring Me The Horizon - Throne Tabs

Artists:  A B C D E F G H I J K L M N O P Q R S T U V W X Y Z # 

Throne Tabs

(ver. 2) Click to play this song!
Bring Me The Horizon
Intro:
 C|---------------------------------------------------|
G#|---------------------------------------------------|
D#|--14-14-14-14-16-16-14-16----14-16----14-14-16-16--| 
A#|--------------------------14-------14--------------| x4
 F|---------------------------------------------------|
A#|---------------------------------------------------|

then

 C|-----------------------------------------------|
G#|--10-10-10-10-10-10-12-12-12-12-12-12-10-12----|
D#|--------------------------------------------9--| 
A#|-----------------------------------------------| x4
 F|-----------------------------------------------|
A#|-----------------------------------------------|
 or
 C|---------------------------------------------------------------------------|
G#|---------------------------------------------------------------------------|
D#|---------------------------------------------------------------------------|
A#|-2-2-2-2-2-2-2-2-10-10-10-10-10-10-10-10-5-5-5-5-5-5-5-5-5-0-0-0-0-0-0-0-0-| x2
 F|-2-2-2-2-2-2-2-2-10-10-10-10-10-10-10-10-5-5-5-5-5-5-5-5-5-0-0-0-0-0-0-0-0-|
A#|-2-2-2-2-2-2-2-2-10-10-10-10-10-10-10-10-5-5-5-5-5-5-5-5-5-0-0-0-0-0-0-0-0-|

Verse 1
('remember the moment?')
 C|-----------------------------------------------------------|
G#|--10-10-10-8-10-12--10-10-10-8-10-12--10-10-8-10-8-10-8-5--|
D#|-----------------------------------------------------------| 
A#|-----------------------------------------------------------| x2
 F|-----------------------------------------------------------|
A#|-----------------------------------------------------------|

Chorus
('so you can?')
 C|--------------------------------------------------------------|
G#|--5-5-5-12-12-12-13-12----10-10-10-12-10-8--10-10-10-12-10-8--|
D#|------------------------9-------------------------------------| 
A#|--------------------------------------------------------------| 
 F|--------------------------------------------------------------|
A#|--------------------------------------------------------------|
 
 C|------------------------------------------------------|
G#|--12-12-12-13-12--10-10-10-12-10-8--10-10-10-12-10-8--|
D#|------------------------------------------------------| 
A#|------------------------------------------------------| 
 F|------------------------------------------------------|
A#|------------------------------------------------------|

or

 C|---------------------------------------------------|
G#|---------------------------------------------------|
D#|--14-14-14-14-16-16-14-16----14-16----14-14-16-16--| 
A#|--------------------------14-------14--------------| x4
 F|---------------------------------------------------|
A#|---------------------------------------------------|

or 

 C|---------------------------------------------------------------------------|
G#|---------------------------------------------------------------------------|
D#|---------------------------------------------------------------------------|
A#|-2-2-2-2-2-2-2-2-10-10-10-10-10-10-10-10-5-5-5-5-5-5-5-5-5-0-0-0-0-0-0-0-0-| x2
 F|-2-2-2-2-2-2-2-2-10-10-10-10-10-10-10-10-5-5-5-5-5-5-5-5-5-0-0-0-0-0-0-0-0-|
A#|-2-2-2-2-2-2-2-2-10-10-10-10-10-10-10-10-5-5-5-5-5-5-5-5-5-0-0-0-0-0-0-0-0-|

Post Chorus
(after 'throne')
 C|---------------------------------------------------------------------------|
G#|---------------------------------------------------------------------------|
D#|---------------------------------------------------------------------------|
A#|-2-2-2-2-2-2-2-2-10-10-10-10-10-10-10-10-5-5-5-5-5-5-5-5-5-0-0-0-0-0-0-0-0-| x2
 F|-2-2-2-2-2-2-2-2-10-10-10-10-10-10-10-10-5-5-5-5-5-5-5-5-5-0-0-0-0-0-0-0-0-|
A#|-2-2-2-2-2-2-2-2-10-10-10-10-10-10-10-10-5-5-5-5-5-5-5-5-5-0-0-0-0-0-0-0-0-|

or

 C|-----------------------------------------------|
G#|--10-10-10-10-10-10-12-12-12-12-12-12-10-12----|
D#|--------------------------------------------9--| 
A#|-----------------------------------------------| x4
 F|-----------------------------------------------|
A#|-----------------------------------------------|

Verse 2
('the sticks and?')
 C|-----------------------------------------------------------|
G#|--10-10-10-8-10-12--10-10-10-8-10-12--10-10-8-10-8-10-8-5--|
D#|-----------------------------------------------------------| 
A#|-----------------------------------------------------------| x2
 F|-----------------------------------------------------------|
A#|-----------------------------------------------------------|

Chorus
('so you can?')
 C|--------------------------------------------------------------|
G#|--5-5-5-12-12-12-13-12----10-10-10-12-10-8--10-10-10-12-10-8--|
D#|------------------------9-------------------------------------| 
A#|--------------------------------------------------------------| 
 F|--------------------------------------------------------------|
A#|--------------------------------------------------------------|
 
 C|------------------------------------------------------|
G#|--12-12-12-13-12--10-10-10-12-10-8--10-10-10-12-10-8--|
D#|------------------------------------------------------| 
A#|------------------------------------------------------| 
 F|------------------------------------------------------|
A#|------------------------------------------------------|

or
 
 C|---------------------------------------------------|
G#|---------------------------------------------------|
D#|--14-14-14-14-16-16-14-16----14-16----14-14-16-16--| 
A#|--------------------------14-------14--------------| x4
 F|---------------------------------------------------|
A#|---------------------------------------------------|

or 

 C|---------------------------------------------------------------------------|
G#|---------------------------------------------------------------------------|
D#|---------------------------------------------------------------------------|
A#|-2-2-2-2-2-2-2-2-10-10-10-10-10-10-10-10-5-5-5-5-5-5-5-5-5-0-0-0-0-0-0-0-0-| x2
 F|-2-2-2-2-2-2-2-2-10-10-10-10-10-10-10-10-5-5-5-5-5-5-5-5-5-0-0-0-0-0-0-0-0-|
A#|-2-2-2-2-2-2-2-2-10-10-10-10-10-10-10-10-5-5-5-5-5-5-5-5-5-0-0-0-0-0-0-0-0-|

Post Chorus 2
(after 'throne')
 C|---------------------------------------------------------------------------|
G#|---------------------------------------------------------------------------|
D#|---------------------------------------------------------------------------|
A#|-2-2-2-2-2-2-2-2-10-10-10-10-10-10-10-10-5-5-5-5-5-5-5-5-5-0-0-0-0-0-0-0-0-| x4
 F|-2-2-2-2-2-2-2-2-10-10-10-10-10-10-10-10-5-5-5-5-5-5-5-5-5-0-0-0-0-0-0-0-0-|
A#|-2-2-2-2-2-2-2-2-10-10-10-10-10-10-10-10-5-5-5-5-5-5-5-5-5-0-0-0-0-0-0-0-0-|

or

 C|-----------------------------------------------|
G#|--10-10-10-10-10-10-12-12-12-12-12-12-10-12----|
D#|--------------------------------------------9--| 
A#|-----------------------------------------------| x8
 F|-----------------------------------------------|
A#|-----------------------------------------------|

Bridge
('throne')
 C|--------------------------------------|
G#|--------------------------------------|
D#|--------------------------------------|
A#|---10/2-2-2-2-2-2-2/10-2-2-2-2-2-2-2--| 
 F|---10/2-2-2-2-2-2-2/10-2-2-2-2-2-2-2--|
A#|---10/2-2-2-2-2-2-2/10-2-2-2-2-2-2-2--|

('I'll leave you?')
 C|-----------------------------------------------------------------------------|
G#|--12-12-13-12-10--8-10-8-10-12-12-13-12-10--8-10-12-12-13-12-10--8-10-12-12--|
D#|-----------------------------------------------------------------------------| 
A#|-----------------------------------------------------------------------------|
 F|-----------------------------------------------------------------------------|
A#|-----------------------------------------------------------------------------|

 C|-----------------------------------------------------------------------------|
G#|--12-12-13-12-10--8-10-8-10-12-12-13-12-10--8-10-12-12-13-12-10--8-10-12-12--|
D#|-----------------------------------------------------------------------------| 
A#|-----------------------------------------------------------------------------|
 F|-----------------------------------------------------------------------------|
A#|-----------------------------------------------------------------------------|

('every wound will?')
 C|--------------------------------------|
G#|--10-10-10-12-10-8--10-10-10-12-10-8--|
D#|--------------------------------------| 
A#|--------------------------------------| 
 F|--------------------------------------|
A#|--------------------------------------|

Instrumental
 C|---------------------------------------------------------------------------|
G#|---------------------------------------------------------------------------|
D#|---------------------------------------------------------------------------|
A#|-2-2-2-2-2-2-2-2-10-10-10-10-10-10-10-10-5-5-5-5-5-5-5-5-5-0-0-0-0-0-0-0-0-| x2
 F|-2-2-2-2-2-2-2-2-10-10-10-10-10-10-10-10-5-5-5-5-5-5-5-5-5-0-0-0-0-0-0-0-0-|
A#|-2-2-2-2-2-2-2-2-10-10-10-10-10-10-10-10-5-5-5-5-5-5-5-5-5-0-0-0-0-0-0-0-0-|

or

 C|-----------------------------------------------|
G#|--10-10-10-10-10-10-12-12-12-12-12-12-10-12----|
D#|--------------------------------------------9--| 
A#|-----------------------------------------------| x4
 F|-----------------------------------------------|
A#|-----------------------------------------------|

Final Chorus
('so you can?')
 C|--------------------------------------------------------------|
G#|--5-5-5-12-12-12-13-12----10-10-10-12-10-8--10-10-10-12-10-8--|
D#|------------------------9-------------------------------------| 
A#|--------------------------------------------------------------| 
 F|--------------------------------------------------------------|
A#|--------------------------------------------------------------|
 
 C|---------------------------------------------------------|
G#|--12-12-12-13-12--10-10-10-12-10-8--10-10-10-12-10-8-5~--|
D#|---------------------------------------------------------| 
A#|---------------------------------------------------------| 
 F|---------------------------------------------------------|
A#|---------------------------------------------------------|

or
 
 C|---------------------------------------------------|
G#|---------------------------------------------------|
D#|--14-14-14-14-16-16-14-16----14-16----14-14-16-16--| 
A#|--------------------------14-------14--------------| x4
 F|---------------------------------------------------|
A#|---------------------------------------------------|

or 

 C|---------------------------------------------------------------------------|
G#|---------------------------------------------------------------------------|
D#|---------------------------------------------------------------------------|
A#|-2-2-2-2-2-2-2-2-10-10-10-10-10-10-10-10-5-5-5-5-5-5-5-5-5-0-0-0-0-0-0-0-0-| x2
 F|-2-2-2-2-2-2-2-2-10-10-10-10-10-10-10-10-5-5-5-5-5-5-5-5-5-0-0-0-0-0-0-0-0-|
A#|-2-2-2-2-2-2-2-2-10-10-10-10-10-10-10-10-5-5-5-5-5-5-5-5-5-0-0-0-0-0-0-0-0-|
            
Submit corrections

↑ Back to top | Tablatures and chords for acoustic guitar and electric guitar, ukulele, drums are parodies/interpretations of the original songs. You may use it for private study, scholarship, research or language learning purposes only