Home » B » Bring Me The Horizon »

Bring Me The Horizon - Throne Tabs

Artists:  A B C D E F G H I J K L M N O P Q R S T U V W X Y Z # 

Throne Tabs

(ver. 1) Click to play this song!
Bring Me The Horizon
Intro

Guitar 1

-----------------------|
-----------------------|
-----------------------|
--10----6----1----8----| x2
--10----6----1----8----|
--10----6----1----8----|

Guitar 2

---------------------------|
---------------------------|
--10/12--10/12--10/12------|
--x--x---x--x---x--x(x8)---| x4
--8/10---8/10---8/10-------|
---------------------------|

Piano Verse

Pre Chorus

--------------------------------|
--------------------------------|
--------------------------------|
--10----6------3----10----6-----|
--10----6------3----10----6-----|
--10----6------3----10----6-----|

Chorus

Guitar 1

---------------------------------------|
---------------------------------------|
---------------------------------------|
--10----6----1----8----10----6----1----|
--10----6----1----8----10----6----1----|
--10----6----1----8----10----6----1----|

Guitar 2

---------------------------|
---------------------------|
--10/12--10/12--10/12------|
--x--x---x--x---x--x(x8)---| x4
--8/10---8/10---8/10-------|
---------------------------|

Piano Verse

Pre Chorus

--------------------------------|
--------------------------------|
--------------------------------|
--10----6------3----10----6-----|
--10----6------3----10----6-----|
--10----6------3----10----6-----|

Chorus

Guitar 1

-----------------------|
-----------------------|
-----------------------|
--10----6----1----8----| x4
--10----6----1----8----|
--10----6----1----8----|


Guitar 2

---------------------------|
---------------------------|
--10/12--10/12--10/12------|
--x--x---x--x---x--x(x8)---| x8
--8/10---8/10---8/10-------|
---------------------------|

Synth Break

Build Up

Guitar 1

------------------------------------------|
------------------------------------------|
--5--7--8---5--7--8-----------------------|
--6--8--10--6--8--10--6--8--10--6--8--3---|
----------------------6--8--10--6--8--3---|
----------------------6--8--10--6--8--3---|

Guitar 2 (Starts playing when Guitar 1 plays bar power chord on 6)

Strum rapidly

-----------|
-----------|
--7--------|
--x(x128)--|
--5--------|
-----------|

Outro

Guitar 1

-----------------------|
-----------------------|
-----------------------|
--10----6----1----8----| x4
--10----6----1----8----|
--10----6----1----8----|


Guitar 2

---------------------------|
---------------------------|
--10/12--10/12--10/12------|
--x--x---x--x---x--x(x8)---| x4
--8/10---8/10---8/10-------|
---------------------------|

Tremolo/rapid picking

--------------------|
--------------------|
--10(x12)-12(x20)---|
--------------------| x4
--------------------|
--------------------|            
Submit corrections

↑ Back to top | Tablatures and chords for acoustic guitar and electric guitar, ukulele, drums are parodies/interpretations of the original songs. You may use it for private study, scholarship, research or language learning purposes only