» » »

Bring Me The Horizon - Suicide Season Tabs

Artists:  A B C D E F G H I J K L M N O P Q R S T U V W X Y Z # 

Suicide Season Tabs

(ver. 3) Click to play this song!
Bring Me The Horizon
 Rating:
4/5 (4 votes)

 Suicide Season lessons Tabs too difficult? Try these video lessons and learn fast
 
                -------------------------------------------------------------------------------

Tuning: Drop C

GREAT SONG OFF THEIR NEW ALBUM SUICIDE SEASON (2008)
IT MIGHT NOT BE PERFECT, BUT IT SOUNDS REALLY CLOSE
SORRY I COULDN’T MAKE OUT THE HIGH GUITAR NOTES IN THE BACKGROUND
ENJOY =]


	Intro (Chorus)
|--------------------------------------------------------------------------|(2X)
|--------------------------------------------------------------------------|
|--7-----------------------------------------------------------------------|
|--7-(32x)-------7--------------7------------------------------------------|
|--5------------ 5-(16x)--------5-(16x)------------------------------------|
|----------------8--------------5------------------------------------------|





	Vocals In
|--------------------------------------------------------------------------|(2X)
|--------------------------------------------------------------------------|
|--7-----------------------------------------------------------------------|
|--7-(32x)-------7--------------7------------------------------------------|
|--5-------------5-(16x)--------5-(16x)------------------------------------|
|----------------8--------------5------------------------------------------|





	Drums In/Big Scream “YOU!”
|--------------------------------------------------------------------------|(2X)
|--------------------------------------------------------------------------|
|--7-----------------------------------------------------------------------|
|--7-(32x)-------7--------------7------------------------------------------|
|--5------------ 5-(16x)--------5-(16x)------------------------------------|
|----------------8--------------5------------------------------------------|





	Song Slows
|--------------------------------------------------------------------------|
|--------------------------------------------------------------------------|
|--7~ ---------------------------------------------------------------------|
|--7~ --------------------------------7~ --------------7~ -----------------|
|--5~ --------------------------------5~ --------------5~ -----------------|
|-------------------------------------8~ --------------5~ -----------------|

|--------------------------------------------------------------------------|
|--------------------------------------------------------------------------|
|--7~ ---------------------------------------------------------------------|
|--7~ --------------------------------7~ --------------10~ ----------------|
|--5~ --------------------------------5~ --------------10~ ----------------|
|-------------------------------------8~ --------------10~ ----------------|




	
	Bridge
|--------------------------------------------------------------------------|
|--------------------------------------------------------------------------|
|--------------------------------------------------------------------------|
|---8------------10-----------12-------------------------------------------|
|---8-(16x)------10-(16x)-----12-(36x)-------------------------------------|
|---8------------10-----------12-------------------------------------------|

|--------------------------------------------------------------------------|
|--------------------------------------------------------------------------|
|--------------------------------------------------------------------------|
|---8------------10-----------12~ -----------------------------------------|
|---8-(16x)------10-(16x)-----12~ -----------------------------------------|
|---8------------10-----------12~ -----------------------------------------|





	Chorus 
|--------------------------------------------------------------------------|(2X)
|--------------------------------------------------------------------------|
|--7-----------------------------------------------------------------------|
|--7-(32x)-------7--------------7------------------------------------------|
|--5------------ 5-(16x)--------5-(16x)------------------------------------|
|----------------8--------------5------------------------------------------|





	Bride 2
|--------------------------------------------------------------------------|
|--------------------------------------------------------------------------|
|--------------------------------------------------------------------------|
|-13~ 13~ -------0~ ----------------13~ 13~ -------0~ ---------------------|
|-13~ 13~ -------0~ ----------------13~ 13~ -------0~ ---------------------|
|-13~ 13~ -------0~ ----------------13~ 13~ -------0~ ---------------------|

|---------x-x-------------------------------x-x----------------------------|
|---------x-x-------------------------------x-x----------------------------|
|---------x-x-------------------------------x-x----------------------------|
|-13~ 13--x-x----0~ ----------------13~ 13--x-x----0~ ---------------------|
|-13~ 13--x-x----0~ ----------------13~ 13--x-x----0~ ---------------------|
|-13~ 13--x-x----0~ ----------------13~ 13--x-x----0~ ---------------------|





	Break Down
|--------------------------------------------------------------------------|
|--------------------------------------------------------------------------|
|--------------------------------------------------------------------------|
|--0---------12--------0--------12--------0---------12---------------------|
|--0-(16x)---12-(2x)---0-(14x)--12-(4x)---0-(12x)---12-(16x)---------------|
|--0---------12--------0--------12--------0---------12---------------------|
   *                   *                  *





	Break Down Part 2
|--------------------------------------------------------------------------|
|--------------------------------------------------------------------------|
|--------------------------------------------------------------------------|
|--------------------------------------------------------------------------|
|--------------------------------------------------------------------------|
|--3--0--0--3--0--0--3--0--1--1--1/4--4--4--4--4--4--4--4------------------|

|--------------------------------------------------------------------------|
|--------------------------------------------------------------------------|
|--------------------------------------------------------------------------|
|--------------------------------------------------------------------------|
|------------------------------------------------------1--1--1--1----------|
|--3--0--0--3--0--0--3--0--6~ --6--6--6--1~ --1--1--1--1--1--1--1----------|
                                                       *  *  *  *           _     
|--------------------------------------------------------------------------|  \
|--------------------------------------------------------------------------|   \
|--------------------------------------------------------------------------|    \
|--3--0--0--3--0--0--3--0--1--1--1/4--4--4--4--4--4--4--4------------------|     \
|--3--0--0--3--0--0--3--0--1--1--1/4--4--4--4--4--4--4--4------------------|      \
|--3--0--0--3--0--0--3--0--1--1--1/4--4--4--4--4--4--4--4------------------|       \
                                                                                    |- (2X)
|--------------------------------------------------------------------------|       /
|--------------------------------------------------------------------------|      / 
|--------------------------------------------------------------------------|     / 
|--3--0--0--3--0--0--3--0--6~ --6--6--6--1~ --1--1--1--1--1--1--1----------|    / 
|--3--0--0--3--0--0--3--0--6~ --6--6--6--1~ --1--1--1--1--1--1--1----------|   / 
|--3--0--0--3--0--0--3--0--6~ --6--6--6--1~ --1--1--1--1--1--1--1----------|  / 
                                                       *  *  *  *           _/




	This Is Not The End…
|--------------------------------------------------------------------------|
|--------------------------------------------------------------------------|
|--------------------------------------------------------------------------|
|--0~ -----------------------------------------------------0---------------|
|--0~ -----------------------------------------------------0---------------|
|--0~ -----------------------------------------------------0---------------|





	Long Outro Starts Or Song Part 2
|--------------------------------------------------------------------------------------------------|
|--------------------------------------------------------------------------------------------------|
|--------------15-15-15-15-14-14-14-14-10-10-10-10-------------------------------------------------|
|--------------------------------------------------12-12-12-12-12-12-12-12-12-12-12-12-12-12-12-12-|
|--13-13-13-13-------------------------------------------------------------------------------------|
|--------------------------------------------------------------------------------------------------|
(2x)






	Techno Drums/Whisper Vocals In
|--------------------------------------------------------------------------------------------------|
|--------------------------------------------------------------------------------------------------|
|--------------15-15-15-15-14-14-14-14-10-10-10-10-------------------------------------------------|
|--------------------------------------------------12-12-12-12-12-12-12-12-12-12-12-12-12-12-12-12-|
|--13-13-13-13-------------------------------------------------------------------------------------|
|--------------------------------------------------------------------------------------------------|
(12x)

|--------------------------------------------------------------------------|(4x)
|--------------------------------------------------------------------------|
|--------------------------------------------------------------------------|
|--8------------10------------12-------------------------------------------|
|--8-(8x)-------10-(8x)-------12-(16x)-------------------------------------|
|--8------------10------------12-------------------------------------------|





	Shouting Vocals In
|--------------------------------------------------------------------------|(4x)
|--------------------------------------------------------------------------|
|--------------------------------------------------------------------------|
|--8------------10------------12-------------------------------------------|
|--8-(8x)-------10-(8x)-------12-(16x)-------------------------------------|
|--8------------10------------12-------------------------------------------|





	Ending Guitar Outro 
|--------------------------------------------------------------------------------------------------|
|--------------------------------------------------------------------------------------------------|
|------------15-15-15-15-14-14-14-14-10-10-10-10---------------------------------------------------|
|------------------------------------------------12-12-12-12-12-12-12-12-12-12-12-12-12-12-12-12-12|
|13-13-13-13---------------------------------------------------------------------------------------|
|--------------------------------------------------------------------------------------------------|
 (4x)



| /  slide up
| \  slide down
| h  hammer-on
| p  pull-off
| ~  let ring
| [] harmonic
| x  Mute note



=================================================================================
            
Submit corrections


        Suicide Season lessons Hard to play? Try these video lessons and learn fast Suicide Season lessons
        
↑ Back to top | Tablatures and chords for acoustic guitar and electric guitar, ukulele, drums are parodies/interpretations of the original songs. You may use it for private study, scholarship, research or language learning purposes only