» » »

Bring Me The Horizon - Suicide Season Tabs

Artists:  A B C D E F G H I J K L M N O P Q R S T U V W X Y Z # 

Suicide Season Tabs

(ver. 2) Click to play this song!
Bring Me The Horizon
 Rating:
4/5 (4 votes)

 Suicide Season lessons Tabs too difficult? Try these video lessons and learn fast
 
                Bring me the horizon rule =]]
Songs in Drop C, yeah, i Know everyson on suicide seasons drop A#
but this one's in Drop C. 


tuning - Drop C
Band - bring me the horizon
Album - suicide season.


---[Lee Malia]------

Intro.

0.02
e|-------------------------------|-----------------------------|
B|-------------------------------|-----------------------------|
D|--777777777--------------------|--77777777-------------------|
D|--777777777-77777777-77777777--|--77777777-77777777-7777777--|
A|--555555555-55555555-55555555--|--55555555-55555555-5555555--|
E|------------88888888-55555555--|-----------88888888-5555555--|

0.40
e|-------------------------------|-----------------------------|
B|-------------------------------|-----------------------------|
D|--777777777--------------------|--77777777-------------------|
D|--777777777-77777777-77777777--|--77777777-77777777-7777777--|
A|--555555555-55555555-55555555--|--55555555-55555555-5555555--|
E|------------88888888-55555555--|-----------88888888-5555555--|

1.07
e|-------------------------------|-----------------------------|
B|-------------------------------|-----------------------------|
D|--777777777--------------------|--77777777-------------------|
D|--777777777-77777777-77777777--|--77777777-77777777-7777777--|
A|--555555555-55555555-55555555--|--55555555-55555555-5555555--|
E|------------88888888-55555555--|-----------88888888-5555555--|

2.06
e|--13-12--13-12-13-12-10--17--|--13-12-13-12-13-12-10-10-|
B|-----------------------------|--------------------------|
G|-----------------------------|--------------------------| FAST picking.
D|-----------------------------|--------------------------|
A|-----------------------------|--------------------------|
E|-----------------------------|--------------------------|

2.31
e|-------------------------------|-----------------------------|
B|-------------------------------|-----------------------------|
D|--777777777--------------------|--77777777-------------------|
D|--777777777-77777777-77777777--|--77777777-77777777-7777777--|
A|--555555555-55555555-55555555--|--55555555-55555555-5555555--|
E|------------88888888-55555555--|-----------88888888-5555555--|

2.59
e|---------------------------------|
B|---------------------------------|
G|---------------------------------|
D|--13-13-0--13-13-xx-0--13-13-xx--|
A|--13-13-0--13-13-xx-0--13-13-xx--|
D|--13-13-0--13-13-xx-0--13-13-xx--|

3.12
e|-------------------------------------------------------------------|
B|-------------------------------------------------------------------|
G|-------------------------------------------------------------------|
D|--00000000000-12-12------------12-12-12-12-00000000-12-12-12-12-12-|
A|--00000000000-12-12-0000000000-12-12-12-12-00000000-12-12-12-12-12-|
D|--00000000000-12-12-0000000000-12-12-12-12-00000000-12-12-12-12-12-|
PM* ***********       **********             ********

3.29
e|-------------------------------------------------------|
B|-------------------------------------------------------|
G|-------------------------------------------------------|
D|--3-0-0-----------3-0-0-3-0-3-0--1-1-1-1-1-4-4-4-4-4-4-|
A|--3-0-0--1-1-1-1--3-0-0-3-0-3-0--1-1-1-1-1-4-4-4-4-4-4-|
D|--3-0-0--1-1-1-1--3-0-0-3-0-3-0--1-1-1-1-1-4-4-4-4-4-4-|
PM*        *******

3.37
e|-------------------------------------------------|
B|-------------------------------------------------|
G|-------------------------------------------------|
D|--3-0-0-3-0-0-3-0-0-6-6-6-6-6-6-6-1-1-1-1-1-1-1--|
A|--3-0-0-3-0-0-3-0-0-6-6-6-6-6-6-6-1-1-1-1-1-1-1--|
D|--3-0-0-3-0-0-3-0-0-6-6-6-6-6-6-6-1-1-1-1-1-1-1--|
PM*                                     *********

3.50
e|-------------------------------------------------------|
B|-------------------------------------------------------|
G|-------------------------------------------------------|
D|--3-0-0-----------3-0-0-3-0-3-0--1-1-1-1-1-4-4-4-4-4-4-|
A|--3-0-0--1-1-1-1--3-0-0-3-0-3-0--1-1-1-1-1-4-4-4-4-4-4-|
D|--3-0-0--1-1-1-1--3-0-0-3-0-3-0--1-1-1-1-1-4-4-4-4-4-4-|
PM*        *******

Amazing interlude!
4.38
e|--12--12--12--12---13--13--13--13---8--8--8--8---5--5--5--5---|
B|----10--10--10--10---11--11--11--11---6--6--6--6--3--3--3--3--|
G|--------------------------------------------------------------|
D|--------------------------------------------------------------|
A|--------------------------------------------------------------|
D|--------------------------------------------------------------|


e|--12--12--12--12---13--13--13--13---8--8--8--8---5--5--5--5---|
B|----10--10--10--10---11--11--11--11---6--6--6--6--3--3--3--3--|
G|--------------------------------------------------------------|
D|--------------------------------------------------------------|
A|--------------------------------------------------------------|
D|--------------------------------------------------------------|

bridge.
5.38
e|---------------------------------------------|
B|---------------------------------------------|
G|---------------------------------------------|
D|--888888888-10101010101-1212121212-00000000--|
A|--888888888-10101010101-1212121212-00000000--|
D|--888888888-10101010101-1212121212-00000000--|

5.58
e|---------------------------------------------|
B|---------------------------------------------|
G|---------------------------------------------|
D|--888888888-10101010101-1212121212-00000000--|
A|--888888888-10101010101-1212121212-00000000--|
D|--888888888-10101010101-1212121212-00000000--|

Outro
6.00
e|------------------------------------------------------|
B|------------------------------------------------------|
G|-------------15151515-141414141-101011010-------------|
D|-------------------------------------------1212121212-|
A|--1313131313------------------------------------------|
D|------------------------------------------------------|

-----------------------------------------------------------------------------


 ----[Curtis Ward]-----

Intro.

0.02
D|-------------------------------|-----------------------------|
A|-------------------------------|-----------------------------|
F|--777777777--------------------|--77777777-------------------|
C|--777777777-77777777-77777777--|--77777777-77777777-7777777--|
G|--555555555-55555555-55555555--|--55555555-55555555-5555555--|
C|------------88888888-55555555--|-----------88888888-5555555--|

0.40
D|-------------------------------|-----------------------------|
A|-------------------------------|-----------------------------|
F|--777777777--------------------|--77777777-------------------|
C|--777777777-77777777-77777777--|--77777777-77777777-7777777--|
G|--555555555-55555555-55555555--|--55555555-55555555-5555555--|
C|------------88888888-55555555--|-----------88888888-5555555--|

1.07
D|-------------------------------|-----------------------------|
A|-------------------------------|-----------------------------|
F|--777777777--------------------|--77777777-------------------|
C|--777777777-77777777-77777777--|--77777777-77777777-7777777--|
G|--555555555-55555555-55555555--|--55555555-55555555-5555555--|
C|------------88888888-55555555--|-----------88888888-5555555--|

2.06
D|---------------------------------------------------------------|
A|---------------------------------------------------------------|
F|---------------------------------------------------------------|
C|--888888888-888888888-101010101-101010101-1212121212-12121212--|
G|--888888888-888888888-101010101-101010101-1212121212-12121212--|
C|--888888888-888888888-101010101-101010101-1212121212-12121212--|

2.31
D|-------------------------------|-----------------------------|
A|-------------------------------|-----------------------------|
F|--777777777--------------------|--77777777-------------------|
C|--777777777-77777777-77777777--|--77777777-77777777-7777777--|
G|--555555555-55555555-55555555--|--55555555-55555555-5555555--|
C|------------88888888-55555555--|-----------88888888-5555555--|

2.59
D|---------------------------------|
A|---------------------------------|
F|---------------------------------|
C|--13-13-0--13-13-xx-0--13-13-xx--|
G|--13-13-0--13-13-xx-0--13-13-xx--|
C|--13-13-0--13-13-xx-0--13-13-xx--|

3.12
D|-------------------------------------------------------------------|
A|-------------------------------------------------------------------|
F|-------------------------------------------------------------------|
C|--00000000000-0--0-------------0--0--0--0--00000000-12-12-12-12-12-|
G|--00000000000-0--0--0000000000-0--0--0--0--00000000-12-12-12-12-12-|
C|--00000000000-0--0--0000000000-0--0--0--0--00000000-12-12-12-12-12-|
PM* ***********       **********             ********

3.29
BREAKDOWN!
D|------------------------------------------------------------|
A|------------------------------------------------------------|
F|------------------------------------------------------------|
C|------------------------------------------3-0-0-------------|
G|------------------------------------------3-0-0-------------|
C|--3-0-0-3-0-0-3-0-0--1-1-1-1-1-4-4-4-4-4--3-0-0-3-0-0-3-00--|

D|-----------------------------------------------------------|
A|-----------------------------------------------------------|
F|-----------------------------------------------------------|
C|--------------------1-1-1-1-3-0-0-3-0-3-1-1-1-1-4-4-4-4-4--|  Repeat.
G|--------------------1-1-1-1-3-0-0-3-0-3-1-1-1-1-4-4-4-4-4--|
C|--6--6-6-6-6--1-1-1-1-1-1-1-3-0-0-3-0-3-1-1-1-1-4-4-4-4-4--|
PM                    *******

4.38
Interlude
D|------------------------------------------------------|
A|------------------------------------------------------|
F|-------------15151515-141414141-101011010-------------|
C|-------------------------------------------1212121212-|
G|--1313131313------------------------------------------|
C|------------------------------------------------------|

D|------------------------------------------------------|
A|------------------------------------------------------|
F|-------------15151515-141414141-101011010-------------|
C|-------------------------------------------1212121212-|
G|--1313131313------------------------------------------|
C|------------------------------------------------------|

5.38
Bridge. 
D|-----------181818181-1717171717-131313---------22-22-22-22-|
A|---------------------------------------1515151-------------|
F|--15151515-------------------------------------------------|
C|-----------------------------------------------------------| Fast Picking.
G|-----------------------------------------------------------|
C|-----------------------------------------------------------|

D|-----------181818181-1717171717-131313---------22-22-22-22-|
A|---------------------------------------1515151-------------|
F|--15151515-------------------------------------------------|
C|-----------------------------------------------------------| Fast Picking.
G|-----------------------------------------------------------|
C|-----------------------------------------------------------|

D|-----------181818181-1717171717-131313---------22-22-22-22-|
A|---------------------------------------1515151-------------|
F|--15151515-------------------------------------------------|
C|-----------------------------------------------------------| Fast Picking.
G|-----------------------------------------------------------|
C|-----------------------------------------------------------|

6.00
Outtro.

D|------------------------------------------------------|
A|------------------------------------------------------|
F|-------------15151515-141414141-101011010-------------|
C|-------------------------------------------1212121212-|
G|--1313131313------------------------------------------|
C|------------------------------------------------------|


D|------------------------------------------------------|
A|------------------------------------------------------|
F|-------------15151515-141414141-101011010-------------|
C|-------------------------------------------1212121212-|
G|--1313131313------------------------------------------|
C|------------------------------------------------------|

Hope you enjoy. its a fun song.
            
Submit corrections


        Suicide Season lessons Hard to play? Try these video lessons and learn fast Suicide Season lessons
        
↑ Back to top | Tablatures and chords for acoustic guitar and electric guitar, ukulele, drums are parodies/interpretations of the original songs. You may use it for private study, scholarship, research or language learning purposes only