» » »

Bring Me The Horizon - Pray For Plagues Tabs

Artists:  A B C D E F G H I J K L M N O P Q R S T U V W X Y Z # 

Pray For Plagues Tabs

(ver. 2) Click to play this song!
Bring Me The Horizon
 Rating:
4/5 (4 votes)

 Pray For Plagues lessons Tabs too difficult? Try these video lessons and learn fast
 
                Song; Pray For Plagues
     
Guitar Tuning- Drop B - (B F# B E G# C#)


    This is Lee’s guitar part.

|---------------------------------|--------------------------|
|---------------------------------|--------------------------|
|---------------------------------|----7h10p7-------6h9p6----|
|---------------------------------|--------------------------|
|--1-4-3-1-----6-9----5h8p5-4h7p4-|--------------------------|
|--1-4-3-1--0-------0-------------|0-0----------0-0----------|
   * * * *  *        *             * *        * *

|------------|--------------------------|
|------------|--------------------------|
|------------|----------------8-10-11---|
|--REST------|---------7-9-10-----------|
|------------|--7-9-10------------------|
|------------|--------------------------|
     
   
|--------------------------------------|----------------|-------------|
|--------------------------------------|----------------|-------------|
|--------------------------------------|----------------|-------------|
|0---------------|(0)------------------|0---------------|-------------|
|0---------------|(0)------------------|0--------7b-----|-------------|
|0---------------|(0)------------------|0---------------|/18~~~~~~~~~~|

|----------------|---------------------|----------------|-------------|
|----------------|---------------------|----------------|-------------|
|----------------|---------------------|----------------|-------------|
|0---------------|(0)------------------|0---------------|-------------|
|0---------------|(0)------------------|0---------------|00--00---0---|
|0---------------|(0)------------------|0---------------|00--00---0---|


|------------|
|------------|
|---[REST]---|
|------------|
|------------|
|------------|

|-----------------------------------------------------------|
|-----------------------------------------------------------| 
|-----------------------------------------------------------|  
|-------------------------------------------7-----6---------| 2 times   
|-----5h8-4-----5-----8-----6------5h8-4-----------------8--|    
|--00-------0-0---0-0---0-0----0-0-------0-0---0-0---0-0----|   
   **       * *   * *   * *    * *       * *   * *   * *             

|--------|-------|----------|--------|
|--------|-------|----------|--------|
|--------|-------|----------|--------| 4 times
|--------|-------|----------|--------|
|00----00|-00-00-|-00----00-|----00--|
|00----00|-00-00-|-00----00-|----00--|
 **    **  ** **   **    **      **

|------------------------------------------------------------|
|------------------------------------------------------------| 
|------------------------------------------------------------|  
|--------------------------------------------7-----6---------| 2 times   
|-----5h8-4-----5-----8-----6------5h8-4-----------------8---|    
|--00-------0-0---0-0---0-0----0-0-------0-0---0-0---0-0-----|   
   **       * *   * *   * *    * *       * *   * *   * *             
       
|------------------------------------------------------------------------|
|------------------------------------------------------------------------|
|------------------------------------------------------------------------|
|------------------------------------------------------------------------|
|------5h8-4-------5-----8------6------5h8-4------4h7p4---5h8p5---6h9p6--|
|--0-0---------0-0---0-0----0-0----0-0--------0-0-------0--------0-------|
  

|----------------------------------------------------|
|----------------------------------------------------|
|------------------------------[2]bend--[4]bend------| 2 times
|----------------------------------------------------|
|--5----7----8----4---------------------------5-4----|
|----00---00---00---00-000-000------00-00---------4-3|
     **   **   **   ** *** ****     ** **     * * * *



|---------------------------|-------|
|---------------------------|-------|
|---------------------------|-------|
|--1--------4----------5----|-------|
|--1--------4----------5----|-1-1---|
|--1--------4----------5----|-1-1---|

   
|------------|
|------------|
|---[REST]---|
|------------|
|------------|
|------------|


|-------------------------------------------------|
|-------------------------------------------------|
|-------------------------------------------------|
|-------------------------------------------------|
|--0-0--0-0---0-00-00-00---------0--3-1-0-4-3-1---|
|--0-0--0-0---0-00-00-00---0000000--3-1-0-4-3-1---|
   * *  * *   * ** ** **   *******


|---------------------------------------------------------------------|
|---------------------------------------------------------------------|
|---------------------------------------------------------------------|
|---------------------------------------------------------[11]-bend---|
|--0-0--0-0---0-00-00-00---------0--3-1-0-4-3-1--0-0--0-0-------------|
|--0-0--0-0---0-00-00-00---0000000--3-1-0-4-3-1--0-0--0-0-------------|
   * *  * *   * ** ** **   *******               * *  * *

|-------------------------------------------------|
|-------------------------------------------------|
|-------------------------------------------------|
|-------------------------------------------------|
|--0-0--0-0---0-00-00-00---------0--3-1-0-4-3-1---|
|--0-0--0-0---0-00-00-00---0000000--3-1-0-4-3-1---|
   * *  * *   * ** ** **   *******


|------------------------------------|
|------------------------------------|
|------------------------------------|
|------------------------------------|
|--0-0--0-0---0-00-00-00---------0---|
|--0-0--0-0---0-00-00-00---0000000---|
   * *  * *   * ** ** **   *******

 “count your f**king”
         |---------|
         |---------| 
         |--[REST]-|
         |---------|
         |---------|
         |---------|
  
  “blessings”
|----------------|---------------------|----------------|-------------|
|----------------|---------------------|--------------|--------------|
|----------------|---------------------|--------------|--------------|
|0---------------|(0)------------------|0-------------|(0)-----------| 2 times
|0---------------|(0)------------------|0-------------|(0)-----------|
|0---------------|(0)------------------|0-------------|(0)-----------|


|--------|-------|----------|--------|
|--------|-------|----------|--------|
|--------|-------|----------|--------| 4 times
|--------|-------|----------|--------|
|00----00|----00-|-00----00-|----00--|
|00----00|----00-|-00----00-|----00--|

 
|--------|---------|
|--------|---------|
|--------|--[REST]-|
|--------|---------|
|--0-0---|---------|
|--0-0---|---------|
   * *

  
|---------------------------------------------------------------|
|---------------------------------------------------------------|
|---------------------------------------------------------------| x2
|--------------------------------------4-7---------3-6----------|
|------9-6-9------8-6-8------3h5-----7-----------6----------3-5-|
|--0-0-------0-0---------0-0-----0-0---------0-0--------0-0-----|
   * *       * *         * *     * *         * *        * *

|--------------------------13-16----------------------------15-17-18--|
|--------------------12-15-------------------------15-17-18-----------|
|--------------11-14----------------------14-16-17--------------------|
|--------10-13-------------------13-15-16-----------------------------|
|---------------------------------------------------------------------|
|-000-0---------------------------------------------------------------|
  ******** **

|--18p15p10-18p15p10-17p14p9-17p14p9-------------|
|------------------------------------------------|
|------------------------------------------------|
|------------------------------------------------|
|-------------------------------------0----------|
|-------------------------------------0----------|

|----------------13-17-13-----------------|
|-------------15----------15--------------|
|----------14----------------14-----------|
|-----12-15---------------------15-12-----| 2 times
|--12-------------------------------------|
|-----------------------------------------|

|-----------------12-16-12----------------|
|--------------14----------14-------------|
|-----------13----------------13----------| 2times
|-----11-14---------------------14-11-----|
|--11-------------------------------------|
|-----------------------------------------|

|----------------13-17-13-----------------|
|-------------15----------15--------------|
|----------14----------------14-----------|
|-----12-15---------------------15-12-----| 2 times
|--12-------------------------------------|
|-----------------------------------------|

|-----------------12-16-12----------------|
|--------------14----------14-------------|
|-----------13----------------13----------| 
|-----11-14---------------------14-11-----|
|--11-------------------------------------|
|-----------------------------------------|


|---------------------------------|
|---------------------------------|
|---------------------------------| 
|---------------------------------|
|--11---(11)\---------------------|
|---------------------------------|
 

|------------------------------------------------|
|------------------------------------------------|
|------------------------------------------------|
|------7“--6“------6----5-4----6~~~~~~-----------|
|5“--------------5---5-------5-------------------|
|------------------------------------------------|                     

|-------------------------------------------------------------------|
|-------------------------------------------------------------------|
|----------7---------------------[7]---------7---------7-6--10--6---|
|----------7---------------------------------7---------7-6--10--6---|
|--0-3-2-0---0-3-2-0-8-7-0-3-2-0-----0-3-2-0---0-3-2-0--------------|
|--0-3-2-0---0-3-2-0-8-7-0-3-2-0-----0-3-2-0---0-3-2-0-----0---0----|
   * * * *   * * * *     *     *     * * * *   * * * *     *   *

|--------------------------------------------------------|
|--------------------------------------------------------|
|----------7---------------------[7]---------7-----------|
|----------7---------------------------------7-----------|
|--0-3-2-0---0-3-2-0-8-7-0-3-2-0-----0-3-2-0---0-0-0-0---|
|--0-3-2-0---0-3-2-0-8-7-0-3-2-0-----0-3-2-0---0-0-0-0---|
   * * * *   * * * *     *     *     * * * *   * * * *

|------------------------------------------------------|
|----------------10h13p10h13--9h12p9h12----------------|
|--11h14p11h14----------------------------10h13p10h13--|
|------------------------------------------------------|
|------------------------------------------------------|
|------------------------------------------------------|

|---------------------------------------------------------|
|---------------------------------------------------------|
|--------------------------------------------------[7]----|
|---------------------------------------------------------|
|--0-3-2-0---0-3-2-0-8-0-0---0-3-2-0---0-3-2-0-8-0--------|
|--0-3-2-0---0-3-2-0-8-0-0---0-3-2-0---0-3-2-0-8-0--------|
   * * * *   * * * *   * *   * * * *   * * * *   *

|------------------------------------------------|
|------------------------------------------------|
|------------------------------------------------|
|------------------------------------------------|
|--0-3-2-0---0-3-2-0-8-0-0---0-3-2-0---0-3-2-0---|
|--0-3-2-0---0-3-2-0-8-0-0---0-3-2-0---0-3-2-0---|
   * * * *   * * * *   * *   * * * *   * * * *

|--------------------------|--------------------------|
|--------------------------|--------------------------|
|--------------------------|----7h10p7-------6h9p6----|
|--------------------------|--------------------------|
|-----6--9----5h8p5--4h7p4-|--------------------------|
|---0-------0--------------|0-0----------0-0----------|
    *       *               * *          * *

|------------|--------------------------|
|------------|--------------------------|
|------------|----------------8-10-11---|
|--REST------|---------7-9-10-----------|
|------------|--7-9-10------------------|
|------------|--------------------------|

|-----------------------------------------------------------|
|-----------------------------------------------------------| 
|-----------------------------------------------------------|  
|-------------------------------------------7-----6---------| 2 times   
|----5h8-4-----5-----8-----6------5h8-4-----------------8---|    
|--00-------0-0---0-0---0-0----0-0-------0-0---0-0---0-0----|   

|----------------------------------------------------------------|
|----------------------------------------------------------------|
|----------------------------------------------------------------| x2
|----------------------------------------------------------------|
|------5h8-4-----5-----8-----6------5h8-4-----6h9---7h10---5h8---|
|--0-0-------0-0---0-0---0-0----0-0-------0-0-----0------0-------|
   * *       * *   * *   * *    * *       * *     *      *
|---------------------------------------|
|---------------------------------------|
|---------------------------------------|
|--0-----------0------------------------|
|--0-----------0----------3-1-0-4-3-1---|
|--0-----------0----------3-1-0-4-3-1---|

|------------|--------------------|-------------|
|------------|--------------------|-------------|
|------------|--------------------|-------------|
|--REST------|----[REST]----------|-------------|
|------------|--------------------|-3-1-0-4-3-1-|
|------------|--------------------|-3-1-0-4-3-1-|

|-----------------------------------------5-------------------------|
|-------------------------------------------8-6-5-------------------|
|---------------------------5---------------------7-5---------------|
|--------3h7---2-----3h7----------3h7-----------------7-5-----------|
|--0------------------------------------------------------8-9-8-7---|
|--0-0-0-----0---0-0-----0----0-0-----0-0---------------------------|
     * *     *   * *     *    * *     * *                    /         
                                                          2 times         
|-------------------------------------------------------|  /
|-------------------------------------------------------| /
|-------------------------------------------------------|/
|--0-----3h7---2-----3h7---5-----3h7--------------------|
|--0---------------------------- ---------3-1-0-4-3-1---|
|--0-0-0-----0---0-0-----0---0-0-----0-0--3-1-0-4-3-1---|


|------------|
|------------|
|------------|
|0-----------|
|0-----------|
|0-----------|

 
|---------------------------------------------------------|
|---------------------------------------------------------|
|--------------------------------------------------[7-]---| x2
|--0-3-2-0---0-3-2-0-8-0-0---0-3-2-0---0-3-2-0-8-0--------|
|--0-3-2-0---0-3-2-0-8-0-0---0-3-2-0---0-3-2-0-8-0--------|
|--0-3-2-0---0-3-2-0-8-0-0---0-3-2-0---0-3-2-0-8-0--------|
   * * * *   * * * *   * *   * * * *   * * * *   *

|------------|
|------------|
|------------|
|------------|
|--0-3-2-0---|
|--0-3-2-0---|
   * * * *


Legend:

/ - SLIDE UP TO          h - HAMMER ON
\ - SLIDE DOWN TO        p - PULL OF
~ - VIBRATO              * - PALM MUTE
" - TREMOLO PICKING     [] - ARTIFICAL HARMONIC
B - FULL TONE BEND       b - HALF TONE BEND
            
Submit corrections


        Pray For Plagues lessons Hard to play? Try these video lessons and learn fast Pray For Plagues lessons
        
↑ Back to top | Tablatures and chords for acoustic guitar and electric guitar, ukulele, drums are parodies/interpretations of the original songs. You may use it for private study, scholarship, research or language learning purposes only