» » »

Bring Me The Horizon - Pray For Plagues Tabs

Artists:  A B C D E F G H I J K L M N O P Q R S T U V W X Y Z # 

Pray For Plagues Tabs

(ver. 1) Click to play this song!
Bring Me The Horizon
 Rating:
4/5 (4 votes)

 Pray For Plagues lessons Tabs too difficult? Try these video lessons and learn fast
 
                XXXXXXXXXXXXXXXXXXXXXXXXXXXXXXXXXXXXXXXXXXXXXXXXXXXXXXXXXX
XXX     Pray for Plagues – Bring Me the Horizon      XXXXX
XXXXXXXXXXXXXXXXXXXXXXXXXXXXXXXXXXXXXXXXXXXXXXXXXXXXXXXXXX

Tuning: B.F#.b.E.G#.C#

             |=======================|
             |         KEY           |
             |=======================|
             |.  -  Palm Mute        |
             |H  -  Hammer On        |
             |P  -  Pull Off         |
             |B  -  Bend             |
             |*  -  Pinch Harmonic   |
             |tr -  Tremelo Pick     |
             |~  -  Hold Note        |
             |V  -  Vibrato          |
             |=======================|
             |=======================|

This is really an awesome song with an awesome guitar part.
p.s. its not as hard as it sounds.
Learn the faster parts slow if you can't get them down.. make sure you get in the the 
mutes open low 0's and all that fun stuff :D


***All Bends Are Full Bends.***

|---------------------------------------------------------------|
|---------------------------------------------------------------|
|-----------------------------------------------8h11p8----------|
|-1-3-4-1----------------------------7h10p7---------------------|
|-1-3-4-1----6--9----5h8p5—4h7p4--------------------------------|
|-1-3-4-1--0------0--------------0-0--------0-0-----------------|
  . . . .  .      .              . .        . .

|------------------------------------------|
|------------------------------------------|
|--7---6-6-9----------------8h10h11--------|
|--------------------7h9h10----------------|
|-------------7h9h10-----------------------|
|----0-------------------------------------|
     .
FLY!!!!
|----------------------------------------------------------------|
|----------------------------------------------------------------|
|----------------------------------------------------------------|
|---------------------3---------------------7----6---------------|  x2
|-----5h8-4-----5-----------6-----5h8-4----------------8---------|
|--0--------0-0---0-0---0-0---0-0-------0-0---0-0--0-0-----------|
   .        . .   . .   . .   . .       . .   . .  . .

|-----------|
|-----------|
|---3*V-----|
|-----------|
|-----------|
|-----------|

She starts her new diet of liquor and dick.
Just like Hollywood! But laced in Sick.
|----------------------------------------------------------------|
|----------------------------------------------------------------|
|----------------------------------------------------------------|
|---------------------3---------------------7----6---------------|   x2
|-----5h8-4-----5-----------6-----5h8-4----------------8---------|
|--0--------0-0---0-0---0-0---0-0-------0-0---0-0--0-0-----------|
   .        . .   . .   . .   . .       . .   . .  . .

The sun goes down! And so does she.
The sun goes Down! And so does she.
|---------------------------------------------------------------------|
|---------------------------------------------------------------------|
|------7h10-6------7-----10-----8------7h10-6-----6h9---7h10---8h11---|
|---------------------------------------------------------------------|x2
|---------------------------------------------------------------------|
|--0-0---------0-0---0-0----0-0----0-0--------0-0-----0------0--------|
   . .         . .   . .    . .    . .        . .     .      .

Sold out the love that she had. Left with a cut of the throat.
Drinks all around on her before she strolls to the moat.
|----------------------------------------------------------------|
|----------------------------------------------------------------|
|----------------------------------------------------------------|
|---------------------3---------------------7----6---------------| x2
|-----5h8-4-----5-----------6-----5h8-4----------------8---------|
|--0--------0-0---0-0---0-0---0-0-------0-0---0-0--0-0-----------|
   .        . .   . .   . .   . .       . .   . .  . .

The sun goes down! And so does she.
The sun goes Down! And so does she!
|---------------------------------------------------------------------|
|---------------------------------------------------------------------|
|------7h10-6------7-----10-----8------7h10-6-----6h9---7h10---8h11---|
|---------------------------------------------------------------------|x2
|---------------------------------------------------------------------|
|--0-0---------0-0---0-0----0-0----0-0--------0-0-----0------0--------|
   . .         . .   . .    . .    . .        . .     .      .

|---------------------------------------------------|
|---------------------------------------------------|
|----------------------------12*b-------14*b--------|
|---------------------------------------------------|
|--5----7----8----4---------------------------------|
|----00---00---00---00-00-00------00-00-----00-00---|
     ..   ..   ..   .. .. ..      .. ..     .. ..

|-----------------------------------------------------|
|-----------------------------------------------------|
|----------------------------14*b------12*b-----------|
|-----------------------------------------------------|
|--5----7----8----4-------------------------5-4-------|
|----00---00---00---00-00-00------00-00---------4-3---|
     ..   ..   ..   .. .. ..      .. ..

|--------------|
|--------------|
|--------------|
|--1-4-5-1-1---|
|--1-4-5-1-1---|
|--1-4-5-1-1---|

Oh.
|-------------|
|-------------|
|-------------|
|--0-0--0-0---|
|--0-0--0-0---|
|--0-0--0-0---|
   . .  . .


|-------------------------------------------------|
|-------------------------------------------------|
|-------------------------------------------------|
|--0-0--0-0---0-00-00-00---0000000--3-1-0-4-3-1---|
|--0-0--0-0---0-00-00-00---0000000--3-1-0-4-3-1---|
|--0-0--0-0---0-00-00-00---0000000--3-1-0-4-3-1---|
   . .  . .   . .. .. ..   .......


|--------------------------------------------------------------------|
|--------------------------------------------------------------------|
|---------------------------------------------------------12*b-------|
|--0-0--0-0---0-00-00-00---0000000--3-1-0-4-3-1--0-0--0-0------------|
|--0-0--0-0---0-00-00-00---0000000--3-1-0-4-3-1--0-0--0-0------------|
|--0-0--0-0---0-00-00-00---0000000--3-1-0-4-3-1--0-0--0-0------------|
   . .  . .   . .. .. ..   .......               . .  . .
Count!
|-------------------------------------------------|
|-------------------------------------------------|
|-------------------------------------------------|
|--0-0--0-0---0-00-00-00---0000000--3-1-0-4-3-1---|
|--0-0--0-0---0-00-00-00---0000000--3-1-0-4-3-1---|
|--0-0--0-0---0-00-00-00---0000000--3-1-0-4-3-1---|
   . .  . .   . .. .. ..   .......

                                    Count your f**king,
|------------------------------------|
|------------------------------------|
|------------------------------------|
|--0-0--0-0---0-00-00-00---0000000---|
|--0-0--0-0---0-00-00-00---0000000---|
|--0-0--0-0---0-00-00-00---0000000---|
   . .  . .   . .. .. ..   .......

Blessings!    Come on
Count your Blessings! Cause I'm Counting Every lie.
Count your Blessings! Cause I'm Counting Every lie.
Counting every Lie.
|---------------------------------------------------------------|
|---------------------------------------------------------------|
|---------------------------------------------------------------| x6
|----------4---------3-------------------12----------11---------|
|------6-5-------5-4-------3h5-----10-12-------9--11------------|
|--0-0-------0-0-------0-0-----0-0---------0-0----------10h12---|
   . .       . .       . .     . .         . .


|--------|
|--------|
|--------|
|--0-0---|
|--0-0---|
|--0-0---|
   . .
Christ, I'm asking you for just one thing.
I'm asking you for just one thing.
|---------------------------------------------------------------|
|---------------------------------------------------------------|
|---------------------------------------------------------------| x2
|----------4---------3-------------------12----------11---------|
|------6-5-------5-4-------3h5-----10-12-------9--11------------|
|--0-0-------0-0-------0-0-----0-0---------0-0----------10h12---|
   . .       . .       . .     . .         . .

______
|SOLO|
|-------------------------------13h16-----------------------------15h17h18--|
|--------------------------12h15-------------------------15h17h18-----------|
|---------------------11h14---------------------14h16h17--------------------|
|---------------10h13------------------13h15h16-----------------------------|
|---------------------------------------------------------------------------|
|--00-00-00-00--------------------------------------------------------------|
    .. .. .. ..

|--18p15p10-18p15p10-17p14p9-17p14p9------|
|-----------------------------------------|
|-----------------------------------------|
|-----------------------------------------|
|-----------------------------------------|
|-----------------------------------------|


Sweep Picking

|-------------13h17p13--------------------13h7p13--------------|
|-----------15--------15----------------15--------15-----------|
|---------14------------14------------14------------14---------|
|-------15----------------15--------15----------------15-------|
|--12-17--------------------17-12-17--------------------17-----|
|--------------------------------------------------------------|

|-------------12h16p12--------------------12h16p12--------------|
|-----------14--------14----------------14--------14------------|
|---------13------------13------------13------------13----------|
|-------14----------------14--------14----------------14--------|
|--11-16--------------------16-11-16--------------------16------|
|---------------------------------------------------------------|

|-------------13h17p13--------------------13h17p13-------------|
|-----------15--------15----------------15--------15-----------|
|---------14------------14------------14------------14---------|
|-------15----------------15--------15----------------15-------|
|--12-17--------------------17-12-17--------------------17-----|
|--------------------------------------------------------------|


|-------------13h17p13---------------|
|-----------14--------14-------------|
|---------13------------13-----------|
|-------14----------------14---------|
|--11-16--------------------16-11----|
|------------------------------------|

Eradicate, This Disease
|---------------------------------------------------------------------------|
|---------------------------------------------------------------------------|
|---------------------------------------------------------------------------|
|----------------------------------------10-9-------------------------------|
|-----------tr12(x6)-11tr(x12)-----11------------11-------------------------|
|--tr12(x32)--------------------12----12------12----------------------------|
                                .     .       .
Close your eyes, pray for plagues,
|---------------------------------------------------------------------------|
|---------------------------------------------------------------------------|
|----------7---------------------7*---------7----------7-6---10--6----------|
|--0-3-2-0-7-0-3-2-0-8-7-0-3-2-0----0-3-2-0-7-0-3-2-0--7-6---10--6----------|
|--0-3-2-0---0-3-2-0-8-7-0-3-2-0----0-3-2-0---0-3-2-0-----------------------|
|--0-3-2-0---0-3-2-0-8-7-0-3-2-0----0-3-2-0---0-3-2-0------0---0------------|
   . . . .   . . . .     .    .     . . . .   . . . .      .   .

Oh Lord, cleanse this Earth and bring upon our.
|---------------------------------------------------------|
|---------------------------------------------------------|
|----------7----------------------7*--------7-------------|
|--0-3-2-0-7-0-3-2-0--8-7--0-3-2-0----0-3-2-0-7-0-0--0-0--|
|--0-3-2-0---0-3-2-0--8-7--0-3-2-0----0-3-2-0---0-0--0-0--|
|--0-3-2-0---0-3-2-0--8-7--0-3-2-0----0-3-2-0---0-0--0-0--|
   . . . .   . . . .       .     .    . . . .   . .  . .

Doomsday!
|-------------------------------------------------------------------------|
|--------------------10h13p10h13p10h13--9h12p9h12p9h12--------------------|
|--11h14p11h14p11h14-----------------------------------10h13p10h13p10h13--|
|-------------------------------------------------------------------------|
|-------------------------------------------------------------------------|
|-------------------------------------------------------------------------|

Oh, close your eyes, pray for plagues.
|---------------------------------------------------------|
|---------------------------------------------------------|
|------------------------------------------------12*------|
|--0-3-2-0--0-3-2-0---0-0--0-3-2-0-8-0-3-2-0-8-0----------|
|--0-3-2-0--0-3-2-0---0-0--0-3-2-0-8-0-3-2-0-8-0----------|
|--0-3-2-0--0-3-2-0---0-0--0-3-2-0-8-0-3-2-0-8-0----------|
   . . . .  . . . .   . .  . . . .   . . . .   .

Cleanse this Earth and bring dooms day.
|------------------------------------------------|
|------------------------------------------------|
|------------------------------------------------|
|--0-3-2-0---0-3-2-0-8-0-0---0-3-2-0---0-3-2-0---|
|--0-3-2-0---0-3-2-0-8-0-0---0-3-2-0---0-3-2-0---|
|--0-3-2-0---0-3-2-0-8-0-0---0-3-2-0---0-3-2-0---|
   . . . .   . . . .   . .   . . . .   . . . .

|---------------------------------------------------|
|---------------------------------------------------|
|------------------------------------------8h11p8---|
|------------------------------7h107p7--------------|
|-----6--9----5h8p5--4h7p4--------------------------|
|--0-------0---------------0-0---------0-0----------|
   .       .               . .         . .
    AHH!!!
|-----------------------------------------|
|-----------------------------------------|
|---7*---6*-6-9-----------------8-10-11---|
|-----------------------7-9-10------------|
|---------------7-9-10--------------------|
|-----0-----------------------------------|
      .
She starts her new diet of liquor and dick.
Just like Hollywood! But laced in Sick.
|----------------------------------------------------------------|
|----------------------------------------------------------------|
|----------------------------------------------------------------|
|---------------------3---------------------7----6---------------|  x2
|-----5h8-4-----5-----------6-----5h8-4----------------8---------|
|--0--------0-0---0-0---0-0---0-0-------0-0---0-0--0-0-----------|
   .        . .   . .   . .   . .       . .   . .  . .


The sun goes down! And so does she.
The sun goes Down! And so does she!
|----------------------------------------------------------------|
|----------------------------------------------------------------|
|----------------------------------------------------------------| x2
|----------------------3-----------------------------------------|
|------5h8-4-----5-----------6------5h8-4-----6h9---7h10---5h8---|
|--0-0-------0-0---0-0---0-0----0-0-------0-0-----0------0-------|
   . .       . .   . .   . .    . .       . .     .      .

So clap your hands to the sound of every first born dying now.
Watch the rivers flow with blood. Death will stand where life once stood.
|----------------------------------------|
|----------------------------------------|
|----------------------------------------|
|--0~-----------0~-----------------------|
|--0~-----------0~-----------------------|
|--0~-----------0~---------3-1-0-4-3-1---|


|--------------------------------------------------------|
|--------------------------------------------------------|
|--------------------------------------------------------|
|--0-----------------------6---------------3-1-0-4-3-1---|
|--0-----5h8---4-----5h8----------5h8------3-1-0-4-3-1---|
|--0-0-0-----0---0-0-----0----0-0-----0-0--3-1-0-4-3-1---|
     . .     .   . .     .    . .     . .

So clap your hands to the sound of every first born dying now.
|--------------------------------------------------------------------|
|--------------------------------------------------------------------|
|-----------------------------------------8p7p5----------------------|
|--0-----------------------6--------------------8p7p5----------------|
|--0-----5h8---4-----5h8----------5h8-----------------8p7p5-6p5p3----|
|--0-0-0-----0---0-0-----0----0-0-----0-0----------------------------|
     . .     .   . .     .    . .     . .

Watch the rivers turn to blood, death will stand where life once stood.
|--------------------------------------------------------|
|--------------------------------------------------------|
|--------------------------------------------------------|
|--0-----------------------6---------------3-1-0-4-3-1---|
|--0-----5h8---4-----5h8----------5h8------3-1-0-4-3-1---|
|--0-0-0-----0---0-0-----0----0-0-----0-0--3-1-0-4-3-1---|
     . .     .   . .     .    . .     . .

So clap your hands to the sound of every first born dying now.
|--------------------------------------------------------------------|
|--------------------------------------------------------------------|
|-----------------------------------------8p7p5----------------------|
|--0-----------------------6--------------------8p7p5----------------|
|--0-----5h8---4-----5h8----------5h8-----------------8p7p5--6p5p3---|
|--0-0-0-----0---0-0-----0----0-0-----0-0----------------------------|
     . .     .   . .     .    . .     . .

Watch the rivers turn to blood, death will stand where life once stood.
|--------------------------------------------------------|
|--------------------------------------------------------|
|--------------------------------------------------------|
|--0------------------------6--------------3-1-0-4-3-1---|
|--0-----5h8---4-----5h8----------5h8------3-1-0-4-3-1---|
|--0-0-0-----0---0-0-----0----0-0-----0-0--3-1-0-4-3-1---|
     . .     .   . .     .    . .     . .

Close your eyes, pray for plagues.
Cleanse this Earth, bring our dooms day!
|---------------------------------------------------------|
|---------------------------------------------------------|
|---------------------------------------------------12*---| x2
|--0-3-2-0---0-3-2-0-8-0-0---0-3-2-0---0-3-2-0-8-0--------|
|--0-3-2-0---0-3-2-0-8-0-0---0-3-2-0---0-3-2-0-8-0--------|
|--0-3-2-0---0-3-2-0-8-0-0---0-3-2-0---0-3-2-0-8-0--------|
   . . . .   . . . .   . .   . . . .   . . . .   .

|------------|
|------------|
|------------|
|--0-3-2-0---|
|--0-3-2-0---|
|--0-3-2-0---|
   . . . .
            
Submit corrections


        Pray For Plagues lessons Hard to play? Try these video lessons and learn fast Pray For Plagues lessons
        
↑ Back to top | Tablatures and chords for acoustic guitar and electric guitar, ukulele, drums are parodies/interpretations of the original songs. You may use it for private study, scholarship, research or language learning purposes only