» » »

Bring Me The Horizon - Happy Song Tabs

Artists:  A B C D E F G H I J K L M N O P Q R S T U V W X Y Z # 

Happy Song Tabs

(ver. 2) Click to play this song!
Bring Me The Horizon
 Rating:
4.4/5 (7 votes)

 Happy Song  lessons Tabs too difficult? Try these video lessons and learn fast
 
                [Intro]
Guitar 1
(0:00)
C |-----------------------------------------------------------------------|
G |-----------------------------------------------------------------------|
D#|-----------------------------------------------------------------------|
A#|-----------------------------------------------------------------------|
F |-13-------17h19--------------------13-------17h19----------------------|
C |----0-0-0-------0--0-0-0-15\12-0-0----0-0-0-------0--0-0-0-15h17-17-17-|

Guitar 1
(0:05)
C |-----------------------------------------------------------------------|
G |-----------------------------------------------------------------------|
D#|-----------------------------------------------------------------------|
A#|-----------------------------------------------------------------------|
F |-13-------17h19--------------------13-------17h19----------------------|
C |----0-0-0-------0--0-0-0-15\12-0-0----0-0-0-------0--0-0-0-3--3--------|

(0:11)
C |-----------------------------------------------------------------------|
G |-----------------------------------------------------------------------|
D#|-----------------------------------------------------------------------|
A#|-----------------------------------------------------------------------|
F |----------5-h7------------------------------5-h7-----------------------|
C |-6-p0-0-0-------0--0-0-0-3-p0--0-0-6-p0-0-0-------0--0-0-0-3-h5--5--5--| x2

[Verse]
Guitar 1
(0:22)
C |-----------------------------------------------------------------------|
G |-----------------------------------------------------------------------|
D#|-----------------------------------------------------------------------|
A#|-----------------------------------------------------------------------|
F |-13-------17h19--------------------13-------17h19----------------------|
C |----0-0-0-------0--0-0-0-15\12-0-0----0-0-0-------0--0-0-0-15h17-17-17-|

Guitar 1
(0:28)
C |-----------------------------------------------------------------------|
G |-----------------------------------------------------------------------|
D#|-----------------------------------------------------------------------|
A#|-----------------------------------------------------------------------|
F |-13-------17h19--------------------13-------17h19----------------------|
C |----0-0-0-------0--0-0-0-15\12-0-0----0-0-0-------0--0-0-0-3--3--------|

[Chorus]
(0:33)
C |-----------------------------------------------------------------------|
G |-----------------------------------------------------------------------|
D#|-----------------------------------------------------------------------|
A#|-----------------------------------------------------------------------|
F |----------5-h7------------------------------5-h7-----------------------|
C |-6-p0-0-0-------0--0-0-0-3-p0--0-0-6-p0-0-0-------0--0-0-0-3-h5--5--5--| x2

[Verse]
Guitar 1
(0:44)
C |-----------------------------------------------------------------------|
G |-----------------------------------------------------------------------|
D#|-----------------------------------------------------------------------|
A#|-----------------------------------------------------------------------|
F |-13-------17h19--------------------13-------17h19----------------------|
C |----0-0-0-------0--0-0-0-15\12-0-0----0-0-0-------0--0-0-0-15h17-17-17-|

Guitar 1
(0:50)
C |-----------------------------------------------------------------------|
G |-----------------------------------------------------------------------|
D#|-----------------------------------------------------------------------|
A#|-----------------------------------------------------------------------|
F |-13-------17h19--------------------13-------17h19----------------------|
C |----0-0-0-------0--0-0-0-15\12-0-0----0-0-0-------0--0-0-0-3--3--------|

[Chorus]
(0:56)
C |-----------------------------------------------------------------------|
G |-----------------------------------------------------------------------|
D#|-----------------------------------------------------------------------|
A#|-----------------------------------------------------------------------|
F |----------5-h7------------------------------5-h7-----------------------|
C |-6-p0-0-0-------0--0-0-0-3-p0--0-0-6-p0-0-0-------0--0-0-0-3-h5--5--5--| x2

[Post-Chorus]
(1:07)
    G#5       A#5 C5          D#5 F5          D#5 F5
C |---------------------------------------------------------------|
G |---------------------------------------------------------------|
D#|-5-5-5-5-5-7-7-------------------------------------------------|
A#|-5-5-5-5-5-7-7-2-2-2-2-2-2-5-5-7-7-7-7-7-7-5-5-7-7-7-7-7-7-7-7-|
F |-3-3-3-3-3-5-5-2-2-2-2-2-2-5-5-7-7-7-7-7-7-5-5-7-7-7-7-7-7-7-7-|
C |---------------0-0-0-0-0-0-3-3-5-5-5-5-5-5-3-3-5-5-5-5-5-5-5-5-| x2

(1:29)
C |-----------------------------------------------------------------------|
G |-----------------------------------------------------------------------|
D#|-----------------------------------------------------------------------|
A#|-----------------------------------------------------------------------|
F |----------5-h7------------------------------5-h7-----------------------|
C |-6-p0-0-0-------0--0-0-0-3-p0--0-0-6-p0-0-0-------0--0-0-0-3-h5--5--5--| x2

[Chorus]
(1:51)
C |---------------------------------------------------------------------------|
G |---------------------------------------------------------------------------|
D#|---------------------------------------------------------------------------|
A#|---------------------------------------------------------------------------|
F |---------------5-h7-----------------------------5-h7-----------------------|
C |-3-3--6-p0-0-0-------0--0-0-0-3p-0-0-0-6-p0-0-0-------0--0-0-0-3-h5--5--5--|

C |-----------------------------------------------------------------------|
G |-----------------------------------------------------------------------|
D#|-----------------------------------------------------------------------|
A#|-----------------------------------------------------------------------|
F |----------5-h7------------------------------5-h7-----------------------|
C |-6-p0-0-0-------0--0-0-0-3-p0--0-0-6-p0-0-0-------0--0-0-0-3-h5--5--5--| x2

[Post-Chorus]
(2:03)
    G#5       A#5 C5          D#5 F5          D#5 F5
C |---------------------------------------------------------------|
G |---------------------------------------------------------------|
D#|-5-5-5-5-5-7-7-------------------------------------------------|
A#|-5-5-5-5-5-7-7-2-2-2-2-2-2-5-5-7-7-7-7-7-7-5-5-7-7-7-7-7-7-7-7-|
F |-3-3-3-3-3-5-5-2-2-2-2-2-2-5-5-7-7-7-7-7-7-5-5-7-7-7-7-7-7-7-7-|
C |---------------0-0-0-0-0-0-3-3-5-5-5-5-5-5-3-3-5-5-5-5-5-5-5-5-| x3

(2:36)
    G#5       A#5 C5          D#5 F5          D#5 F5
C |-----------------------------------------------------------------|
G |-----------------------------------------------------------------|
D#|-5-5-5-5-5-7-7---------------------------------------------------|
A#|-5-5-5-5-5-7-7-2-2-2-2-2-2-5-5-7-7-7-7-7-7-5-5-7-7-7-7-7-7-7-7---|
F |-3-3-3-3-3-5-5-2-2-2-2-2-2-5-5-7-7-7-7-7-7-5-5-7-7-7-7-7-7-7-7---|
C |---------------0-0-0-0-0-0-3-3-5-5-5-5-5-5-3-3-5-5-5-5-5-5-5-5-0-|

[Bridge]
(3:10)
C |-------------------------------------|
G |-------------------------------------|
D#|-------------------------------------|
A#|-------------------------------------|
F |-------------------------------------|
C |-0-0-0-0-0-0-0-0-0-0-0-0-12-13-12-10-| x3

(3:18)
C |-------------------------|
G |-------------------------|
D#|-------------------------|
A#|-------------------------|
F |-------------------------|
C |-0-0-0-0-0-0-0-0-0-0-0-0-|

[Breakdown]
(3:21)
C |----------------------------------------------------|
G |----------------------------------------------------|
D#|----------------------------------------------------|
A#|----------------------------------------------------|
F |----------------------------------------------------|
C |-0--0--0--0-0-0-15-15-0-0-0-15-0-0-15-0-12-13-12-11-|

(3:26)
C |----------------------------------------------------|
G |----------------------------------------------------|
D#|----------------------------------------------------|
A#|----------------------------------------------------|
F |----------------------------------------------------|
C |-0--0--0--0-0-0-15-15-0-0-0-15-0-0-15-0-0--15-15-15-|

[Outro]
Guitar 1
(3:32)
C |----------------------------------------------------------|
G |-5--5-5-5-5-3--3-3-3-3------------------------------------|
D#|-----------------------3--3-3-3--3-3-3-3-3--3-3-3-3/15~---|
A#|----------------------------------------------------------|
F |----------------------------------------------------------|
C |----------------------------------------------------------|
WH     < < < <    < < < <    < < <    < < <    < < <

Guitar 2
(3:32)
C |----------------------------------------------------------|
G |----------------------------------------------------------|
D#|----------------------------------------------------------|
A#|----------------------------------------------------------|
F |----------------------------------------------------------|
C |-0--0--0--0--0--0--0--15--0--0--15--0--0-15-0-12-13-12-11-|
PM  _  _  _     _  _  _      _  _      _  _

Guitar 1
(3:37)
C |---------------------------------------------------|
G |-5--5-5-5-5-3--3-3-3-3-----------------------------|
D#|-----------------------3--3-3-3--3-3-3-3-3--3-3-3--|
A#|---------------------------------------------------|
F |---------------------------------------------------|
C |---------------------------------------------------|
WH     < < < <    < < < <    < < <    < < <    < < <

Guitar 2
(3:37)
C |---------------------------------------------------|
G |---------------------------------------------------|
D#|---------------------------------------------------|
A#|---------------------------------------------------|
F |---------------------------------------------------|
C |-0--0--0--0---0--0--0--15--0--0--15--0--0--15------|
PM  _  _  _      _  _  _      _  _      _  _

Guitar 1
(3:42)
C |--------------------------------------------|
G |--------------------------------------------|
D#|-3/15-15-15-15-15-15-15-15-15~---15~--------|
A#|--------------------------------------------|
F |--------------------------------------------|
C |----------------------------------------0---|

Guitar 2
(3:42)
C |--------------------------------------------|
G |--------------------------------------------|
D#|--------------------------------------------|
A#|--------------------------------------------|
F |--------------------------------------------|
C |-0-15-15-15-15-15-15--15-0-12/15-12/15--12~-|
            
Submit corrections


        Happy Song  lessons Hard to play? Try these video lessons and learn fast Happy Song  lessons
        
↑ Back to top | Tablatures and chords for acoustic guitar and electric guitar, ukulele, drums are parodies/interpretations of the original songs. You may use it for private study, scholarship, research or language learning purposes only