» » »

Bring Me The Horizon - Happy Song Tabs

Artists:  A B C D E F G H I J K L M N O P Q R S T U V W X Y Z # 

Happy Song Tabs

(ver. 1) Click to play this song!
Bring Me The Horizon
 Rating:
4.3/5 (9 votes)

 Happy Song  lessons Tabs too difficult? Try these video lessons and learn fast
 
                D|---------------------------------|------------------------------------|
A|---------------------------------|------------------------------------|
F|---------------------------------|------------------------------------|
C|-12--12----10--10----------------|--------------------18b-18b-18b-18b-|
G|---------------------11--11--11--|11----11-11-11--11------------------|
C|---------------------------------|------------------------------------|
 |  *         *         *       *         *     *       *(stay on)            |
D|---------------------------------|-----------------------------------|
A|---------------------------------|------------------------------------|
F|---------------------------------|------------------------------------|
C|-12--12----10--10----------------|--------------------18b-18b-18b-18b-|
G|---------------------11--11--11--|11----11-11-11--11------------------|
C|---------------------------------|------------------------------------|
 |  *         *         *       *         *     *       *(stay on)            |
D|---------------------------------|------------------------------------|
A|---------------------------------|------------------------------------|
F|---------------------------------|------------------------------------|
C|-18b-18b-18b-18b-18b-18b-18b-18b-|18b-18b-18b-18b---------------------|
G|---------------------------------|------------------------------------|
C|---------------------------------|------------------------------------|
 |  *(stay on)                                                                |
            
Submit corrections


        Happy Song  lessons Hard to play? Try these video lessons and learn fast Happy Song  lessons
        
↑ Back to top | Tablatures and chords for acoustic guitar and electric guitar, ukulele, drums are parodies/interpretations of the original songs. You may use it for private study, scholarship, research or language learning purposes only