» » »

Bring Me The Horizon - And The Snakes Start To Sing Tabs

Artists:  A B C D E F G H I J K L M N O P Q R S T U V W X Y Z # 

And The Snakes Start To Sing Tabs

(ver. 2) Click to play this song!
Bring Me The Horizon
 Rating:
4.3/5 (28 votes)

 And The Snakes Start To Sing lessons Tabs too difficult? Try these video lessons and learn fast
 
                Tuning: Drop A (AEADF#B)

Verse (x2) // I've lost the plot again...
e|------------------------------------------|---------------------------------------------|
B|------5----------5---------5--------5-----|------5----------5---------5--------5--------|
G|--------5----------5---------5--------5---|--------5----------5---------5--------5------|
D|------------------------------------------|---------------------------------------------|
A|--0----------0---------3--------5---------|--0----------0---------3--------5------------|
E|------------------------------------------|---------------------------------------------|

Interlude (Distorted) (x2)
e|---------------------------15----12------19-19------------------------------------------------------------|
B|--12brb--10---12brb--10-------------------------12-12------12brb--10---12brb--10----13--------------------|
G|-----------------------------------------------------------------------------------------10--------9------|
D|----------------------------------------------------------------------------------------------------------|
A|----------------------------------------------------------------------------------------------------------|
E|----------------------------------------------------------------------------------------------------------|

Verse (x2) // Do you feel the chill?...
e|------------------------------------------|---------------------------------------------|
B|------5----------5---------5--------5-----|------5----------5---------5--------5--------|
G|--------5----------5---------5--------5---|--------5----------5---------5--------5------|
D|------------------------------------------|---------------------------------------------|
A|--0----------0---------3--------5---------|--0----------0---------3--------5------------|
E|------------------------------------------|---------------------------------------------|

Chorus (Distorted) (x2) // Worms come out of the woodwork...
e|---------------------------15----12------19-19------------------------------------------------------------|
B|--12brb--10---12brb--10-------------------------12-12------12brb--10---12brb--10----13--------------------|
G|-----------------------------------------------------------------------------------------10--------9------|
D|----------------------------------------------------------------------------------------------------------|
A|----------------------------------------------------------------------------------------------------------|
E|----------------------------------------------------------------------------------------------------------|

Verse (x2) // Don't say I'm better off dead...
e|------------------------------------------|---------------------------------------------|
B|------5----------5---------5--------5-----|------5----------5---------5--------5--------|
G|--------5----------5---------5--------5---|--------5----------5---------5--------5------|
D|------------------------------------------|---------------------------------------------|
A|--0----------0---------3--------5---------|--0----------0---------3--------5------------|
E|------------------------------------------|---------------------------------------------|

Pre-Chorus (Distorted) // I'm just a would've been...
e|------------------------------------------|-------------------------------------------------|
B|--12brb--10---12brb--10---12brb-----------|---12brb--10---12brb--10---12brb-----------------|
G|------------------------------------------|-------------------------------------------------|
D|------------------------------------------|-------------------------------------------------|
A|------------------------------------------|-------------------------------------------------|
E|------------------------------------------|-------------------------------------------------|

e|---------------------------15----12------19-19------------------------------------------------------------|
B|--12brb--10---12brb--10-------------------------12-12------12brb--10---12brb--10----13--------------------|
G|-----------------------------------------------------------------------------------------10--------9------|
D|----------------------------------------------------------------------------------------------------------|
A|----------------------------------------------------------------------------------------------------------|
E|----------------------------------------------------------------------------------------------------------|

Chorus (Distorted) (x2) // Worms come out of the woodwork...
e|---------------------------15----12------19-19------------------------------------------------------------|
B|--12brb--10---12brb--10-------------------------12-12------12brb--10---12brb--10----13--------------------|
G|------------------------------------------------------------------------------------------10-------9------|
D|----------------------------------------------------------------------------------------------------------|
A|----------------------------------------------------------------------------------------------------------|
E|----------------------------------------------------------------------------------------------------------|

Bridge/Solo (Distorted)
e|---------------------------------------------------|------------------------------------------------------|
B|---------------------------------------------------|------------------------------------------------------|
G|--9--10--7--5--9--4-------9--10--7--5--9--4--------|--4--5--2--4--0------9-----------9------------9-------|
D|---------------------------------------------------|-----------------7---------7-----------5/7------------|
A|---------------------------------------------------|------------------------------------------------------|
E|---------------------------------------------------|------------------------------------------------------|

e|---------------------------------------------------|--------------------------------------------19brb-----|
B|--17-18-15-13-17-12-------17-18-15-13-17-12--------|--12-13-10-12-8--------17-----------------------------|
G|---------------------------------------------------|----------------14-----------------17-----------------|
D|---------------------------------------------------|----------------------------15------------------------|
A|---------------------------------------------------|------------------------------------------------------|
E|---------------------------------------------------|------------------------------------------------------|

Chorus (x7) // If you can't soar with the eagles...
e|------------------------------------------------------------|
B|------------------------------------------------------------|
G|------------------------------------------------------------|
D|--------14brb--------14brb--------14brb--------8--8--10-10--|
A|--12-12--------12-12--------12-12----------12---------------|
E|------------------------------------------------------------|

Chorus (x1) // Or just a step...
e|------------------------------|
B|------------------------------|
G|------------------------------|
D|------------------------------|
A|--12--------------------------|
E|------------------------------|

Chorus (Distorted) (x4 *OR* x8) // If you can't soar with the eagles...
e|--0--0--0--0--0--0--0--0--0--0--0--0---0--0--0--0--|
B|--0--0--0--0--0--0--0--0--0--0--0--0---0--0--0--0--|
G|--0--0--0--0--0--0--0--0--0--0--0--0---0--0--0--0--|
D|--0--0--0--0--0--0--0--0--0--0--0--0---0--0--0--0--|
A|--7--7--7--7--7--7--7--7--10-10-10-10--3--3--3--3--|
E|--7--7--7--7--7--7--7--7--10-10-10-10--3--3--3--3--|

Chorus (Distorted) (x2 *OR* not at all) // Worms come out of the woodwork...
e|---------------------------15----12------19-19------------------------------------------------------------|
B|--12brb--10---12brb--10-------------------------12-12------12brb--10---12brb--10----13--------------------|
G|------------------------------------------------------------------------------------------10-------9------|
D|----------------------------------------------------------------------------------------------------------|
A|----------------------------------------------------------------------------------------------------------|
E|----------------------------------------------------------------------------------------------------------|            
Submit corrections


        And The Snakes Start To Sing lessons Hard to play? Try these video lessons and learn fast And The Snakes Start To Sing lessons
        
↑ Back to top | Tablatures and chords for acoustic guitar and electric guitar, ukulele, drums are parodies/interpretations of the original songs. You may use it for private study, scholarship, research or language learning purposes only