» » »

Bring Me The Horizon - And The Snakes Start To Sing Tabs

Artists:  A B C D E F G H I J K L M N O P Q R S T U V W X Y Z # 

And The Snakes Start To Sing Tabs

(ver. 1) Click to play this song!
Bring Me The Horizon
 Rating:
4/5 (4 votes)

 And The Snakes Start To Sing lessons Tabs too difficult? Try these video lessons and learn fast
 
                Tuning:Drop C  

(0:00-0:15)

e|---------------------------------------------------------------------------|
B|---------------------------------------------------------------------------|
G|---------------------------------------------------------------------------|   
D|----12--12----12----12-----------------------------------------------------|(x2)
A|-10--------13----10--------------------------------------------------------|
E|---------------------------------------------------------------------------|

(0:15-0:38)

e|---------------------------------------------------------------------------|
B|---------------------------------------------------------------------------|
G|---------------------------------------------------------------------------|
D|----12---12---12----12-----------------------------------------------------|(x4)
A|-10---10----13---10--------------------------------------------------------|
E|---------------------------------------------------------------------------|

(0:38-1:01)

e|---------------------------------------------------------------------------|
B|-10-11-10---10-11-10--13-10---17-17-------10-11-10--10-11-10---11----------|
G|---------------------------------------------------------------------------|
D|---------12---------12-------------10-10----------12--------12----13--12~--|(x2)
A|---------------------------------------------------------------------------|
E|---------------------------------------------------------------------------|

(1:01-1:25)

e|---------------------------------------------------------------------------|
B|---------------------------------------------------------------------------|
G|---------------------------------------------------------------------------|
D|------12-12-12-12------12-12-12-12-----12-12-12-12-----12-12-12-12---------|
A|-10-10------------10-10-----------13-13-----------10-10--------------------|
E|---------------------------------------------------------------------------|

You hear the part from (0:38-1:01) in various places, including this part,
so feel free to play that instead.

(1:25-1:48)

e|---------------------------------------------------------------------------|
B|---------------------------------------------------------------------------|
G|---------------------------------------------------------------------------|
D|-5------8------1------10---------------------------------------------------|
A|-5-(x16)8-(x8)-1-(x4)-10-(x4)----------------------------------------------|(x4)
E|-4------7------0------9----------------------------------------------------|

(1:48-2:34)

e|---------------------------------------------------------------------------|
B|---------------------------------------------------------------------------|
G|---------------------------------------------------------------------------|
D|------------12-12-12-12-----------12-12-12-12-----------12-12-12-12--------|
A|-10-10-10-10-----------10-10-10-10-----------13-13-13-13-------------------|
E|---------------------------------------------------------------------------|

e|---------------------------------------------------------------------------|
B|---------------------------------------------------------------------------|
G|---------------------------------------------------------------------------|
D|-------------12-12-12-12---------------------------------------------------|(x8)
A|-10-10-10-10---------------------------------------------------------------|
E|---------------------------------------------------------------------------|

(2:34-2:58)

e|---------------------------------------------------------------------------|
B|---------------------------------------------------------------------------|
G|---------------------------------------------------------------------------|
D|-5------8------1------10---------------------------------------------------|
A|-5-(x16)8-(x8)-1-(x4)-10-(x4)----------------------------------------------|(x4)
E|-4------7------0------9----------------------------------------------------|

(2:58-3:22)Not sure about this part, I just do the part from 3:22-4:08,if that helps at all.



3:22-4:08)

e|---------------------------------------------------------------------------|
B|---------------------------------------------------------------------------|
G|---------------------------------------------------------------------------|   
D|------12-13-12---12-13-12-------12-13-12-----------------------------------|
A|-10-10---------10---------13-13----------10/13-13-13\10-10-10--------------|
E|---------------------------------------------------------------------------|

(4:08-5:02)

e|---------------------------------------------------------------------------|
B|---------------------------------------------------------------------------|
G|---------------------------------------------------------------------------|
D|-5------8------1------10---------------------------------------------------|
A|-5-(x16)8-(x8)-1-(x4)-10-(x4)----------------------------------------------|
E|-4------7------0------9----------------------------------------------------|

(Repeat until song ends)
            
Submit corrections


        And The Snakes Start To Sing lessons Hard to play? Try these video lessons and learn fast And The Snakes Start To Sing lessons
        
↑ Back to top | Tablatures and chords for acoustic guitar and electric guitar, ukulele, drums are parodies/interpretations of the original songs. You may use it for private study, scholarship, research or language learning purposes only