Home » B » Brand New »

Brand New - Quite Things That Know One Ever Knows Tabs

Artists:  A B C D E F G H I J K L M N O P Q R S T U V W X Y Z # 

Quite Things That Know One Ever Knows Tabs

(ver. 2) Click to play this song!
Brand New
 Rating:
4/5 (4 votes)
                Beginning
e----3p2----3p2----3p2-------3p2--3/55--
B-------3------3-------3--------3-------
G---------------------------------------
D------------------------0--------------
A----------------3----------------------
E-3-------0-----------------------------

RYTHME GUITAR
e------------------------------------
B------------------------------------
G---------------5------7-------------
D-5------2------5 (8X’s) 7(8X's)-------(2X's)
A-5 (8X’s) 2(8X’s) 3------5-------------
E-3------0---------------------------

LEAD GUITAR
e----------------------------------------------
B--7p8p7p8p7p8p7p8--12p13p12p13p12p13p12p13----
G----------------------------------------------
D---------------------------------------------- (2X's)
A----------------------------------------------
E----------------------------------------------

THAT’S THE ENTIRE CORUSE FOR YOU, AND ITS EASAY TO FIGURE OUT THE REST OF THE SONG ALL IT IS JUST.......

e-----------------------
B-----------------------
G-----------------------
D--5XXXXXX--------------
A--5XXXXXX--------------
E--3XXXXXX--------------

THREW THE PARTS THAT ARENT CORUSE BUT, I DONT KNOW HOW TO DO THE LEAD TO THAT PART THOW SORRY!

WELL PLEASE RATE ME ITS AT THE TOP RIGHT HAND CORNER, AND I HOPE U HAVE A FUN TIME WITH THIS AWSOME SONG!!!!
            
Submit corrections

↑ Back to top | Tablatures and chords for acoustic guitar and electric guitar, ukulele, drums are parodies/interpretations of the original songs. You may use it for private study, scholarship, research or language learning purposes only