» » »

Brand New - Quiet Things Tabs

Artists:  A B C D E F G H I J K L M N O P Q R S T U V W X Y Z # 

Quiet Things Tabs

(ver. 1) Click to play this song!
Brand New
 Rating:
4/5 (4 votes)

 Quiet Things lessons Tabs too difficult? Try these video lessons and learn fast
 
                100% correct...


Guitar 2- Intro Part-1
E|-----2p1-1-----2p1-1-----2p1-1------2p1-1---3--3/5------||
B|--------2-2-------2-2-------2-2--------2----------------||
G|--------------------------------------------------------||
D|----------------------------------0---------------------||
A|-----------------------3--------------------------------||
E|--3---------0-------------------------------------------||


        Guitar 1 Chorus/Intro Part-2
E|---------------------------------------------------------------------------||
B|---------------------------------------------------------------------------||
G|---------------------------------------------------------------------------||
D|--5-------------------2----------------5---------------7-------------------||
A|--5-------------------2----------------3---------------5-------------------||
E|--3--(16-Times)-------0--(16-Times)----3--(16-Times)---5--(16-Times)-------||



         Guitar 2- Chorus/Intro-Part 2
E|------------10----------------------10----------------------10-------------||
B|---------------------------------------------------------------------------||
G|-11-12-11-12---12-11-12--11-12-11-12---12-11-12--11-12-11-12---12-11-12----||
D|---------------------------------------------------------------------------||
A|---------------------------------------------------------------------------||
E|---------------------------------------------------------------------------||


        
         Guitar 2- Chorus/Intro Part-2 ...Continued 
E|------------10----------------------14---------------------14--------------||
B|-------------------------11-12-11-12--12-11-12--11-12-11-12--12-11-12------||
G|-11-12-11-12---12-11-12----------------------------------------------------||
D|---------------------------------------------------------------------------||
A|---------------------------------------------------------------------------||
E|---------------------------------------------------------------------------||

       
        
        Guitar 2- Chorus/Intro Part-2...Continued again...
E|-------------10----------------------10------------------------------------||
B|---------------------------------------------------------------------------||
G|-11-12-11-12---12-11-12--11-12-11-12---12-11-12----------------------------||
D|---------------------------------------------------------------------------||
A|---------------------------------------------------------------------------||
E|---------------------------------------------------------------------------||

  Guitar 1 post-Chorus/Intro
E|------------------||
B|------------------||
G|------------------||
D|------------------||
A|--(SLOW-SLIDE)----||
E|----12-/-3--------||

     
         Guitar 1 Verse
E|---------------------------------------------------------------------------||
B|---------------------------------------------------------------------------||
G|---------------------------------------------------------------------------||
D|---------------------------------------------------------------------------||
A|-----5555555555555555------------------------------------------------------||
E|-----3333333333333333--(4-Times)-------------------------------------------||


     Guitar 2 Verse
E|-------------------------------------||
B|-------------------------------------||
G|-------------------------------------||
D|--4--4--4----4--4--4-----------------||
A|--4--4--4----4--4--4-----------------||
E|--2--2--2----2--2--2--(Times-2)------||


Order:
       Intro part 1 (Guitar 2)
       Intro part 2 (Guitar 1 and 2) (2 Times)
       Post Intro   (Guitar 1) 
       Verse        (Guitar 1 and 2) 
       Chorus       (Guitar 1 and 2) (2 Times)
       Post Chorus  (Guitar 1)
       Verse        (Guitar 1 and 2) 
       Chorus       (Guitar 1 and 2) (2 Times)
       Post Intro   (Guitar 2)       (2 Times)
     Guitar 1: verse
     Guitar 2: Intro Part 1
       Chorus       Guitar 1 and 2)  (2 Times)
            
Submit corrections


        Quiet Things lessons Hard to play? Try these video lessons and learn fast Quiet Things lessons
        
↑ Back to top | Tablatures and chords for acoustic guitar and electric guitar, ukulele, drums are parodies/interpretations of the original songs. You may use it for private study, scholarship, research or language learning purposes only