» » »

Brand New - Me Vs Maradona Vs Elvis Tabs

Artists:  A B C D E F G H I J K L M N O P Q R S T U V W X Y Z # 

Me Vs Maradona Vs Elvis Tabs

(ver. 2) Click to play this song!
Brand New
 Rating:
4/5 (4 votes)

 Me Vs Maradona Vs Elvis lessons Tabs too difficult? Try these video lessons and learn fast
 
                Band - Brand New
  Song - Me vs. Maradona vs. Elvis
 Album - Deja Entendu
Tuning - Db Ab Db Gb Bb Eb

      (clean tone)
Eb|------------------------------------------------------
Bb|------------------------------------------------------
Gb|----7--7--7--6--6--6--6--6--4--4--4--2--2--2--2--2----
Db|----0--0--0--0--0--0--0--0--0--0--0--0--0--0--0--0----  x2
Ab|----0--0--0--0--0--0--0--0--0--0--0--0--0--0--0--0----
Db|----0--0--0--0--0--0--0--0--0--0--0--0--0--0--0--0----

Eb|------------------------------------------------------
Bb|------------------------------------------------------
Gb|----7--7--7--6--6--6--6--6----------------------------
Db|----5--5--5--5--5--5--5--5--9--9--9--7--7--7--7--7----  x2
Ab|----5--5--5--5--5--5--5--5--5--5--5--5--5--5--5--5----
Db|----5--5--5--5--5--5--5--5--5--5--5--5--5--5--5--5----


Eb|-----------------------------------------------------------
Bb|-----------------------------------------------------------
Gb|-----------------------------------------------------------
Db|----7--7--7--9--9--9--9--9--12--12--12-11--11-11--11--11---
Ab|----0--0--0--0--0--0--0--0--0---0---0--0---0--0---0---0----
Db|----0--0--0--0--0--0--0--0--0---0---0--0---0--0---0---0----


Eb|-------------------------------------------------------------------------------
Bb|-------------------------------------------------------------------------------
Gb|-------------------------------------------------------------------------------
Db|-7--7--7--9--9--9--9--9--12-12-12-12-12-12-12-12-11-11-11-11-11-11-11-11-11----
Ab|-0--0--0--0--0--0--0--0--0--0--0--0--0--0--0--0--0--0--0--0--0--0--0--0--0-----
Db|-0--0--0--0--0--0--0--0--0--0--0--0--0--0--0--0--0--0--0--0--0--0--0--0--0-----


Eb|---------------------------------------------------------------------------------
Bb|---------------------------------------------------------------------------------
Gb|---------------------------------------------------------------------------------
Db|-------7---7----7--9--9-9-9-9-9-9-9-9---------7----7----7--9--9-9-9-9-9-9-9-9----
Ab|-------9---9----9--7--7-7-7-7-7-7-7-7---------9----9----9--7--7-7-7-7-7-7-7-7----
Db|-0--0---0----0-----7--7-7-7-7-7-7-7-7----0--0---0----0-----7--7-7-7-7-7-7-7-7----
                                                        
                                                        let ring....
Eb|---------------------------------------------------------------------------------
Bb|----3-3-3-3-3-3---------------------3-3-3-3-3-3-3--------------------------------
Gb|----2-2-2-2-2-2----9--9-9-9-9-9-9-9-2-2-2-2-2-2-2----9~~-------------------------
Db|----0-0-0-0-0-0----9--9-9-9-9-9-9-9-0-0-0-0-0-0-0----9~~-------------------------
Ab|----0-0-0-0-0-0----7--7-7-7-7-7-7-7-0-0-0-0-0-0-0----7~~-------------------------
Db|----0-0-0-0-0-0----7--7-7-7-7-7-7-7-0-0-0-0-0-0-0----7~~-------------------------

      (distortion)
Eb|---------------5---------5---------------5-----------5------
Bb|-o-----------5---5-----5---5-----------5---5-------5---5----
Gb|-----------7---------7--------------7--------7---7----------
Db|------0--7---------7----------5--7-------------7------------
Ab|-o----0-----------------------5-----------------------------
Db|------0-----------------------5-----------------------------
 

Eb|----------5-----------5-------------5-----------5-----------
Bb|--------5---5-------5---5---------5---5-------5---5---------
Gb|------7-------7---7-------------7-------7---7---------------
Db|-0--7-----------7----------5--7-----------7-----------------
Ab|-0-------------------------5--------------------------------
Db|-0-------------------------5--------------------------------


Eb|-----------5--7--5-------------5---------|
Bb|---------5---------5---------5---5-----o-|
Gb|-------7-------------------7-------------|
Db|----7-----------------5--7---------------|
Ab|----7-----------------5----------------o-|
Db|----7-----------------5------------------|
                         
                         
Eb|-------------------------------------------------------------------------------
Bb|----3---3---3---------------------------3---3---3--3---------------------------
Gb|----2---2---2---------------------------2---2---2--2---------------------------
Db|----0---0---0---9-/-7--7--7----7--7--7--0---0---0--0--9-/-7--7--7---7--7--7----
Ab|----0---0---0---9-/-7--7--7----7--7--7--0---0---0--0--9-/-7--7--7---7--7--7----
Db|----0---0---0---9-/-7--7--7----7--7--7--0---0---0--0--9-/-7--7--7---7--7--7----

                        NH.                                  NH. ____1st_________   
Eb|------------------------------------------------------------------------------|
Bb|---------------------7------------------------------------7-------------------|
Gb|------------------------------------------------------------------------------|
Db|----5--5--5--5--5-5-----7-7-7-7-7-7-7-7--5--5--5--5--5-5-----7-7-7-7-7-7-7-7--|
Ab|----5--5--5--5--5-5-----7-7-7-7-7-7-7-7--5--5--5--5--5-5-----7-7-7-7-7-7-7-7--|
Db|----5--5--5--5--5-5-----7-7-7-7-7-7-7-7--5--5--5--5--5-5-----7-7-7-7-7-7-7-7--|

   _____________2nd_____________                     Fades....
Eb|------------------------------------------------------------------
Bb|----------------3~~---------------3~~------------3~~---------------
Gb|----------------2~~---------------2~~------------2~~-----------------
Db|--7~~-----------0~~---------------0~~------------0~~--------------
Ab|--7~~-----------0~~---------------0~~------------0~~--------------
Db|--7~~-----------0~~---------------0~~------------0~~--------------
            
Submit corrections


        Me Vs Maradona Vs Elvis lessons Hard to play? Try these video lessons and learn fast Me Vs Maradona Vs Elvis lessons
        
↑ Back to top | Tablatures and chords for acoustic guitar and electric guitar, ukulele, drums are parodies/interpretations of the original songs. You may use it for private study, scholarship, research or language learning purposes only