» » »

Brand New - Me Vs Maradona Vs Elvis Tabs

Artists:  A B C D E F G H I J K L M N O P Q R S T U V W X Y Z # 

Me Vs Maradona Vs Elvis Tabs

(ver. 1) Click to play this song!
Brand New
 Rating:
4/5 (4 votes)

 Me Vs Maradona Vs Elvis lessons Tabs too difficult? Try these video lessons and learn fast
 
                Tuning: (low to high) Db Ab Db Gb Bb Eb

Intro
----------------------------------------------------
----------------------------------------------------
--7--7--7--6--6--6--6--6--4--4--4--2--2--2--2--2----
--0--0--0--0--0--0--0--0--0--0--0--0--0--0--0--0----
--0--0--0--0--0--0--0--0--0--0--0--0--0--0--0--0----
--0--0--0--0--0--0--0--0--0--0--0--0--0--0--0--0----

----------------------------------------------------
----------------------------------------------------
--7--7--7--6--6--6--6--6--4--4--4--2--2--2--2--2----
--0--0--0--0--0--0--0--0--0--0--0--0--0--0--0--0----
--0--0--0--0--0--0--0--0--0--0--0--0--0--0--0--0----
--0--0--0--0--0--0--0--0--0--0--0--0--0--0--0--0----

----------------------------------------------------
----------------------------------------------------
--7--7--7--6--6--6--6--6----------------------------
--5--5--5--5--5--5--5--5--9--9--9--7--7--7--7--7----
--5--5--5--5--5--5--5--5--5--5--5--5--5--5--5--5----
--5--5--5--5--5--5--5--5--5--5--5--5--5--5--5--5----

----------------------------------------------------
----------------------------------------------------
--7--7--7--6--6--6--6--6----------------------------
--5--5--5--5--5--5--5--5--9--9--9--7--7--7--7--7----
--5--5--5--5--5--5--5--5--5--5--5--5--5--5--5--5----
--5--5--5--5--5--5--5--5--5--5--5--5--5--5--5--5----

Verse 1 & 2
----------------------------------------------------
----------------------------------------------------
--7--7--7--6--6--6--6--6--4--4--4--2--2--2--2--2----
--0--0--0--0--0--0--0--0--0--0--0--0--0--0--0--0----
--0--0--0--0--0--0--0--0--0--0--0--0--0--0--0--0----
--0--0--0--0--0--0--0--0--0--0--0--0--0--0--0--0----

----------------------------------------------------
----------------------------------------------------
--7--7--7--6--6--6--6--6--4--4--4--2--2--2--2--2----
--0--0--0--0--0--0--0--0--0--0--0--0--0--0--0--0----
--0--0--0--0--0--0--0--0--0--0--0--0--0--0--0--0----
--0--0--0--0--0--0--0--0--0--0--0--0--0--0--0--0----

----------------------------------------------------
----------------------------------------------------
--7--7--7--6--6--6--6--6----------------------------
--5--5--5--5--5--5--5--5--9--9--9--7--7--7--7--7----
--5--5--5--5--5--5--5--5--5--5--5--5--5--5--5--5----
--5--5--5--5--5--5--5--5--5--5--5--5--5--5--5--5----

----------------------------------------------------
----------------------------------------------------
--7--7--7--6--6--6--6--6----------------------------
--5--5--5--5--5--5--5--5--9--9--9--7--7--7--7--7----
--5--5--5--5--5--5--5--5--5--5--5--5--5--5--5--5----
--5--5--5--5--5--5--5--5--5--5--5--5--5--5--5--5----

----------------------------------------------------
----------------------------------------------------
----------------------------------------------------
--7--7--7--9--9--9--9--12-12-12-11-11-11-11---------
--4--4--4--5--5--5--5--9--9--9--7--7--7--7----------
--4--4--4--5--5--5--5--9--9--9--7--7--7--7----------

----------------------------------------------------
----------------------------------------------------
----------------------------------------------------
--7--7--7--9--9--9--9--12-12-12-12-12-12-11-11-11-11
--4--4--4--5--5--5--5--9--9--9--9--9--9--7--7--7--7-
--4--4--4--5--5--5--5--9--9--9--9--9--9--7--7--7--7-

----------------------------------------------------
----------------------------------------------------
--7--7--7--6--6--6--6--6--4--4--4--2--2--2--2--2----
--0--0--0--0--0--0--0--0--0--0--0--0--0--0--0--0----
--0--0--0--0--0--0--0--0--0--0--0--0--0--0--0--0----
--0--0--0--0--0--0--0--0--0--0--0--0--0--0--0--0----

----------------------------------------------------
----------------------------------------------------
--7--7--7--6--6--6--6--6--4--4--4--2--2--2--2--2----
--0--0--0--0--0--0--0--0--0--0--0--0--0--0--0--0----
--0--0--0--0--0--0--0--0--0--0--0--0--0--0--0--0----
--0--0--0--0--0--0--0--0--0--0--0--0--0--0--0--0----

----------------------------------------------------
----------------------------------------------------
--7--7--7--6--6--6--6--6----------------------------
--5--5--5--5--5--5--5--5--9--9--9--7--7--7--7--7----
--5--5--5--5--5--5--5--5--5--5--5--5--5--5--5--5----
--5--5--5--5--5--5--5--5--5--5--5--5--5--5--5--5----

----------------------------------------------------
----------------------------------------------------
--7--7--7--6--6--6--6--6----------------------------
--5--5--5--5--5--5--5--5--9--9--9--7--7--7--7--7----
--5--5--5--5--5--5--5--5--5--5--5--5--5--5--5--5----
--5--5--5--5--5--5--5--5--5--5--5--5--5--5--5--5----

----------------------------------------------------
----------------------------------------------------
----------------------------------------------------
--7--7--7--9--9--9--9--12-12-12-11-11-11-11---------
--4--4--4--5--5--5--5--9--9--9--7--7--7--7----------
--4--4--4--5--5--5--5--9--9--9--7--7--7--7----------

----------------------------------------------------
----------------------------------------------------
----------------------------------------------------
--7--7--7--9--9--9--9--12-12-12-12-12-12-11-11-11-11
--4--4--4--5--5--5--5--9--9--9--9--9--9--7--7--7--7-
--4--4--4--5--5--5--5--9--9--9--9--9--9--7--7--7--7-

1st Chorus
----------------------------------------------------
----------------------------------------------------
----------------------------------------------------
--11-11-11-11-11-11-11-11-11-11-11-11-11-11-11-11-11
--9--9--9--9--9--9--9--9--9--7--7--7--7--7--7--7--7-
--0--0--0--0--0--0--0--0--9--7--7--7--7--7--7--7--7-

----------------------------------------------------
----------------------------------------------------
----------------------------------------------------
--11-11-11-11-11-11-11-11-11-11-11-11-11-11-11-11-11
--9--9--9--9--9--9--9--9--9--7--7--7--7--7--7--7--7-
--0--0--0--0--0--0--0--0--9--7--7--7--7--7--7--7--7-

----------------------------------------------------
----------------------------------------------------
----------------------------------------------------
--7--7--7--7--7--7--7--9--9--9--9--9--9--9--9--9----
--4--5--5--5--5--5--5--7--7--7--7--7--7--7--7--7----
--4--5--5--5--5--5--5--7--7--7--7--7--7--7--7--7----

----------------------------------------------------
----------------------------------------------------
----------------------------------------------------
--7--7--7--7--7--7--7--9--9--9--9--9--9--9--9--9----
--4--5--5--5--5--5--5--7--7--7--7--7--7--7--7--7----
--4--5--5--5--5--5--5--7--7--7--7--7--7--7--7--7----

Verse 3 & 4
----------------------------------------------------
----------------------------------------------------
--7--7--7--6--6--6--6--6--4--4--4--2--2--2--2--2----
--0--0--0--0--0--0--0--0--0--0--0--0--0--0--0--0----
--0--0--0--0--0--0--0--0--0--0--0--0--0--0--0--0----
--0--0--0--0--0--0--0--0--0--0--0--0--0--0--0--0----

----------------------------------------------------
----------------------------------------------------
--7--7--7--6--6--6--6--6--4--4--4--2--2--2--2--2----
--0--0--0--0--0--0--0--0--0--0--0--0--0--0--0--0----
--0--0--0--0--0--0--0--0--0--0--0--0--0--0--0--0----
--0--0--0--0--0--0--0--0--0--0--0--0--0--0--0--0----

----------------------------------------------------
----------------------------------------------------
--7--7--7--6--6--6--6--6----------------------------
--5--5--5--5--5--5--5--5--9--9--9--7--7--7--7--7----
--5--5--5--5--5--5--5--5--5--5--5--5--5--5--5--5----
--5--5--5--5--5--5--5--5--5--5--5--5--5--5--5--5----

----------------------------------------------------
----------------------------------------------------
--7--7--7--6--6--6--6--6----------------------------
--5--5--5--5--5--5--5--5--9--9--9--7--7--7--7--7----
--5--5--5--5--5--5--5--5--5--5--5--5--5--5--5--5----
--5--5--5--5--5--5--5--5--5--5--5--5--5--5--5--5----

----------------------------------------------------
----------------------------------------------------
----------------------------------------------------
--7--7--7--9--9--9--9--12-12-12-11-11-11-11---------
--4--4--4--5--5--5--5--9--9--9--7--7--7--7----------
--4--4--4--5--5--5--5--9--9--9--7--7--7--7----------

----------------------------------------------------
----------------------------------------------------
----------------------------------------------------
--7--7--7--9--9--9--9--12-12-12-12-12-12-11-11-11-11
--4--4--4--5--5--5--5--9--9--9--9--9--9--7--7--7--7-
--4--4--4--5--5--5--5--9--9--9--9--9--9--7--7--7--7-

----------------------------------------------------
----------------------------------------------------
--7--7--7--6--6--6--6--6--4--4--4--2--2--2--2--2----
--0--0--0--0--0--0--0--0--0--0--0--0--0--0--0--0----
--0--0--0--0--0--0--0--0--0--0--0--0--0--0--0--0----
--0--0--0--0--0--0--0--0--0--0--0--0--0--0--0--0----

----------------------------------------------------
----------------------------------------------------
--7--7--7--6--6--6--6--6--4--4--4--2--2--2--2--2----
--0--0--0--0--0--0--0--0--0--0--0--0--0--0--0--0----
--0--0--0--0--0--0--0--0--0--0--0--0--0--0--0--0----
--0--0--0--0--0--0--0--0--0--0--0--0--0--0--0--0----

----------------------------------------------------
----------------------------------------------------
--7--7--7--6--6--6--6--6----------------------------
--5--5--5--5--5--5--5--5--9--9--9--7--7--7--7--7----
--5--5--5--5--5--5--5--5--5--5--5--5--5--5--5--5----
--5--5--5--5--5--5--5--5--5--5--5--5--5--5--5--5----

----------------------------------------------------
----------------------------------------------------
--7--7--7--6--6--6--6--6----------------------------
--5--5--5--5--5--5--5--5--9--9--9--7--7--7--7--7----
--5--5--5--5--5--5--5--5--5--5--5--5--5--5--5--5----
--5--5--5--5--5--5--5--5--5--5--5--5--5--5--5--5----

----------------------------------------------------
----------------------------------------------------
----------------------------------------------------
--7--7--7--9--9--9--9--12-12-12-11-11-11-11---------
--4--4--4--5--5--5--5--9--9--9--7--7--7--7----------
--4--4--4--5--5--5--5--9--9--9--7--7--7--7----------

----------------------------------------------------
----------------------------------------------------
----------------------------------------------------
--7--7--7--9--9--9--9--12-12-12-12-12-12-11-11-11-11
--4--4--4--5--5--5--5--9--9--9--9--9--9--7--7--7--7-
--4--4--4--5--5--5--5--9--9--9--9--9--9--7--7--7--7-



2nd Chorus
----------------------------------------------------
----------------------------------------------------
----------------------------------------------------
--11-11-11-11-11-11-11-11-11-11-11-11-11-11-11-11-11
--9--9--9--9--9--9--9--9--9--7--7--7--7--7--7--7--7-
--0--0--0--0--0--0--0--0--9--7--7--7--7--7--7--7--7-

----------------------------------------------------
----------------------------------------------------
----------------------------------------------------
--11-11-11-11-11-11-11-11-11-11-11-11-11-11-11-11-11
--9--9--9--9--9--9--9--9--9--7--7--7--7--7--7--7--7-
--0--0--0--0--0--0--0--0--9--7--7--7--7--7--7--7--7-

----------------------------------------------------
----------------------------------------------------
----------------------------------------------------
--7--7--7--7--7--7--7--9--9--9--9--9--9--9--9--9----
--4--5--5--5--5--5--5--7--7--7--7--7--7--7--7--7----
--4--5--5--5--5--5--5--7--7--7--7--7--7--7--7--7----

----------------------------------------------------
----------------------------------------------------
----------------------------------------------------
--7--7--7--7--7--7--7--9--9--9--9--9--9--9--9--9----
--4--5--5--5--5--5--5--7--7--7--7--7--7--7--7--7----
--4--5--5--5--5--5--5--7--7--7--7--7--7--7--7--7----

Bridge Guitar 1
------------5-------------------5-------------------
----------5---5---------------5---5-----------------
--------7-------7-----------7------7----------------
------0-------------------0-------------------------
----0-------------------0---------------------------
--0-------------------0-----------------------------

-----------5-------------------5--------------------
-------------5-------------------5------------------
--------6------6-----------6-------6----------------
------7------------------5--------------------------
----5------------------5----------------------------
--5------------------5------------------------------

------------5-------------------5-------------------
----------5---5---------------5---5-----------------
--------7-------7-----------7------7----------------
------0-------------------0-------------------------
----0-------------------0---------------------------
--0-------------------0-----------------------------

-----------5-------------------5--------------------
-------------5-------------------5------------------
--------6------6-----------6-------6----------------
------7------------------5--------------------------
----5------------------5----------------------------
--5------------------5------------------------------

------------7--------------------5-----------------
----------7---7----------------5---5---------------
--------8-------8------------7-------7-------------
------9-----------9--------5-----------------------
----7--------------------5-------------------------
-----------------------5---------------------------

------------5-------------------5-------------------
----------5---5---------------5---5-----------------
--------7-------7-----------7------7----------------
------0-------------------0-------------------------
----0-------------------0---------------------------
--0-------------------0-----------------------------

-----------5-------------------5--------------------
-------------5-------------------5------------------
--------6------6-----------6-------6----------------
------7------------------5--------------------------
----5------------------5----------------------------
--5------------------5------------------------------

------------5-------------------5-------------------
----------5---5---------------5---5-----------------
--------7-------7-----------7------7----------------
------0-------------------0-------------------------
----0-------------------0---------------------------
--0-------------------0-----------------------------

-----------5-------------------5--------------------
-------------5-------------------5------------------
--------6------6-----------6-------6----------------
------7------------------5--------------------------
----5------------------5----------------------------
--5------------------5------------------------------

------------7--------------------5-----------------
----------7---7----------------5---5---------------
--------8-------8------------7-------7-------------
------9-----------9--------5-----------------------
----7--------------------5-------------------------
-----------------------5---------------------------

Bridge Guitar 2: Distortion
---------------------------------------------------
---------------------------------------------------
---------------------------------------------------
--0~~~---------------------------------------------
--0~~~---------------------------------------------
--0~~~---------------------------------------------

---------------------------------------------------
---------------------------------------------------
---------------------------------------------------
--5~~~---------------------------------------------
--5~~~---------------------------------------------
--5~~~---------------------------------------------

---------------------------------------------------
---------------------------------------------------
---------------------------------------------------
--0~~~---------------------------------------------
--0~~~---------------------------------------------
--0~~~---------------------------------------------

---------------------------------------------------
---------------------------------------------------
---------------------------------------------------
--5~~~---------------------------------------------
--5~~~---------------------------------------------
--5~~~---------------------------------------------

---------------------------------------------------
---------------------------------------------------
---------------------------------------------------
--2~~--------------------5~~-----------------------
--2~~--------------------5~~-----------------------
--2~~--------------------5~~-----------------------

---------------------------------------------------
---------------------------------------------------
---------------------------------------------------
--0~~~---------------------------------------------
--0~~~---------------------------------------------
--0~~~---------------------------------------------

---------------------------------------------------
---------------------------------------------------
---------------------------------------------------
--5~~~---------------------------------------------
--5~~~---------------------------------------------
--5~~~---------------------------------------------

---------------------------------------------------
---------------------------------------------------
---------------------------------------------------
--0~~~---------------------------------------------
--0~~~---------------------------------------------
--0~~~---------------------------------------------

---------------------------------------------------
---------------------------------------------------
---------------------------------------------------
--5~~~---------------------------------------------
--5~~~---------------------------------------------
--5~~~---------------------------------------------

---------------------------------------------------
---------------------------------------------------
---------------------------------------------------
--2~~--------------------5~~-----------------------
--2~~--------------------5~~-----------------------
--2~~--------------------5~~-----------------------

Final Chorus Both Guitars: Distortion
---------------------------------------------------
---------------------------------------------------
---------------------------------------------------
--0---0---0---9--7--7--7--7--7--7--7--7------------
--0---0---0---9--7--7--7--7--7--7--7--7------------
--0---0---0---9--7--7--7--7--7--7--7--7------------

---------------------------------------------------
---------------------------------------------------
---------------------------------------------------
--0---0---0---9--7--7--7--7--7--7--7--7------------
--0---0---0---9--7--7--7--7--7--7--7--7------------
--0---0---0---9--7--7--7--7--7--7--7--7------------

---------------------------------------------------
---------------------------------------------------
---------------------------------------------------
--4--5--5--5--5--5--5-^-7--7--7--7--7--7--7--------
--4--5--5--5--5--5--5-^-7--7--7--7--7--7--7--------
--4--5--5--5--5--5--5-^-7--7--7--7--7--7--7--------

---------------------------------------------------
---------------------------------------------------
---------------------------------------------------
--4--5--5--5--5--5--5-^-7--7--7--7--7--7--7--------
--4--5--5--5--5--5--5-^-7--7--7--7--7--7--7--------
--4--5--5--5--5--5--5-^-7--7--7--7--7--7--7--------
^: feedback

---------------------------------------------------
---------------------------------------------------
---------------------------------------------------
--0---0---0---9--7--7--7--7--7--7--7--7------------
--0---0---0---9--7--7--7--7--7--7--7--7------------
--0---0---0---9--7--7--7--7--7--7--7--7------------

---------------------------------------------------
---------------------------------------------------
---------------------------------------------------
--0---0---0---9--7--7--7--7--7--7--7--7------------
--0---0---0---9--7--7--7--7--7--7--7--7------------
--0---0---0---9--7--7--7--7--7--7--7--7------------

---------------------------------------------------
---------------------------------------------------
---------------------------------------------------
--4--5--5--5--5--5--5-^-7--7--7--7--7--7--7--------
--4--5--5--5--5--5--5-^-7--7--7--7--7--7--7--------
--4--5--5--5--5--5--5-^-7--7--7--7--7--7--7--------

---------------------------------------------------
---------------------------------------------------
---------------------------------------------------
--4--5--5--5--5--5--5-^-7--7--7--7--7--7--7~-------
--4--5--5--5--5--5--5-^-7--7--7--7--7--7--7~-------
--4--5--5--5--5--5--5-^-7--7--7--7--7--7--7~-------
^: feedback

Outro Guitar 1
----------------------------------------------------
----------------------------------------------------
--7--7--7--6--6--6--6--6--4--4--4--2--2--2--2--2----
--0--0--0--0--0--0--0--0--0--0--0--0--0--0--0--0----
--0--0--0--0--0--0--0--0--0--0--0--0--0--0--0--0----
--0--0--0--0--0--0--0--0--0--0--0--0--0--0--0--0----
Repeat as needed and Fade to Nothing

Outro Guitar 2: Distortion
---------------------------------------------------
---------------------------------------------------
---------------------------------------------------
--0~~~---------------------------------------------
--0~~~---------------------------------------------
--0~~~---------------------------------------------
Repeat as needed and Fade to Nothing

Note: Bridge Guitar 1, Verse, Intro, Outro Guitar 1, 
and 1st and 2nd Chorus uses a Chorus Pedal.

There you go! I'm positive this is the way to play it, 
listen to the actual track to get the timing down. 
Make sure you rate this tab and to leave comments/questions 
or anything that would help. THANKS, JMAN

If this is not right I deserve to have my ass kicked by 3rd graders.
            
Submit corrections


        Me Vs Maradona Vs Elvis lessons Hard to play? Try these video lessons and learn fast Me Vs Maradona Vs Elvis lessons
        
↑ Back to top | Tablatures and chords for acoustic guitar and electric guitar, ukulele, drums are parodies/interpretations of the original songs. You may use it for private study, scholarship, research or language learning purposes only