» » »

Brand New - Limousine Tabs

Artists:  A B C D E F G H I J K L M N O P Q R S T U V W X Y Z # 

Limousine Tabs

(ver. 3) Click to play this song!
Brand New
 Rating:
4/5 (4 votes)

 Limousine lessons Tabs too difficult? Try these video lessons and learn fast
 
                ---------------------------------------------------------------------------
 Brand New- Limousine (solo--|
----------------------------------------------------------------------------

Tuning:standard

E---10-10-10-10-10-10-10-10-10-10-10-10--10-9-9-9-9-9-9-9-9-9-9-9-9-9-9-9-9-|
B---------------------------------------------------------------------------|
G---------------------------------------------------------------------------|
D---------------------------------------------------------------------------|
A---------------------------------------------------------------------------|
E---------------------------------------------------------------------------|

E---10----9--10--9--7--9b------14-14-14-14-14-14-14-14-14-12-12-12-12-12-12-|
B---12----------------------------------------------------------------------|
G---------------------------------------------------------------------------|
D---------------------------------------------------------------------------|
A---------------------------------------------------------------------------|
E---------------------------------------------------------------------------|

E----------------------------------------------15-15-15-15-15-15-15-15-15-15-|
B----------------------------------------------------------------------------|
G---4-4--6b--4-4--4---7h5---4-4--6b--7-6-4-2---------------------------------|
D----------------------------------------------------------------------------|
A----------------------------------------------------------------------------|
E----------------------------------------------------------------------------|

E---17-17-17-17-17-17-17-17-18-18-18-18-18-18-18-18-19-19-19-19-19-19-19-19-|
B---------------------------------------------------------------------------|
G---------------------------------------------------------------------------|
D---------------------------------------------------------------------------|
A---------------------------------------------------------------------------|
E---------------------------------------------------------------------------|
            
Submit corrections


        Limousine lessons Hard to play? Try these video lessons and learn fast Limousine lessons
        
↑ Back to top | Tablatures and chords for acoustic guitar and electric guitar, ukulele, drums are parodies/interpretations of the original songs. You may use it for private study, scholarship, research or language learning purposes only