» » »

Brand New - Limousine Tabs

Artists:  A B C D E F G H I J K L M N O P Q R S T U V W X Y Z # 

Limousine Tabs

(ver. 1) Click to play this song!
Brand New
 Rating:
4/5 (4 votes)

 Limousine lessons Tabs too difficult? Try these video lessons and learn fast
 
                I did this in about 20 minutes so it's a very rough tab.. if you have any suggestions, 

Verse: 0:00 - 1:49

E--------------------0 ~---------------------0 ~------------|
B---3 ~---2 ~---3 ~---0 ~---------------3 ~---0 ~-----------|
G---4 ~---4 ~---4 ~---2 ~---4 ~---------4 ~---2 ~-----------|
D---4 ~---4 ~---4 ~---2 ~---5 ~--- 4~---4~---2 ~------------|
A---2 ~---------2 ~---------5  ~-- 4~---2 ~-----------------|
E---------------------------3 ~---1 ~-----------------------|

1:49 - "her signal was interrupted..."

E----------------------------------------------------------------------|
B----------------------------------------------------------------------|
G---------------------4---6---4---0------------------------------------|
D---5---7---9---12---5---6---4---2----5---4----------------------------|
A---5---7---9---12---5---4---2---2----5---4----------------------------|
E---3---5---7---10---3----------------3---1----------------------------|

2:22- "hey, you beauty supreme..."

E-----------------------------------------------|
B-----------------------------------------------|
G---7-------------------------------------------|        x2
D---7---7---5---2---9---7---5---2---------------|
A---5---7---5---2---9---7---5---2---------------|
E-------5---3---0---7---5---3---0---------------|

2:50- "but never again..." (the chorus is the same as well.)

E---3---3------------------------------------------------------------------------|
B---3---3------------------------------------------------------------------------|
G---4---4------------------------------------------------------------------------|
D---4---5---4--------------------------------------------------------------------|
A---2---5---4--------------------------------------------------------------------|
E-------3---1--------------------------------------------------------------------|

I know someone else here tabbed out the solo and it seems pretty accurate, so play that 
top of the rhythm.
            
Submit corrections


        Limousine lessons Hard to play? Try these video lessons and learn fast Limousine lessons
        
↑ Back to top | Tablatures and chords for acoustic guitar and electric guitar, ukulele, drums are parodies/interpretations of the original songs. You may use it for private study, scholarship, research or language learning purposes only