» » »

Brand New - Jaws Theme Swimming Bass

Artists:  A B C D E F G H I J K L M N O P Q R S T U V W X Y Z # 

Jaws Theme Swimming Bass

(ver. 2) Click to play this song!
Brand New
 Rating:
4/5 (4 votes)

 Jaws Theme Swimming lessons Tabs too difficult? Try these video lessons and learn fast
 
                Band: Brand New
Track: 7

Tuning: Half step down Eb,Ab,Db,Gb or D#,G#,C#,F#

| /  slide up
| \  slide down
| h  hammer-on
| p  pull-off
| ~  vibrato

Intro
Gb----------|
Db----------|
Ab----------|
Eb---0~-----|

Verse "In the car outside, we stalked the idle kind"
Gb-----------------------------|
Db-----------------------------|x3
Ab-----------------------------|
Eb--5h7-7p5-5/3-3p2-5h7-7p5-0~-|

Pre-chorus "But I've seen what happens to the wicked and proud"
Gb--------------------------------------2-2-4-2-|
Db------2-4-2-0----2-4-2-0--5-4-2-0-2-4--4------|x1
Ab-2--5----------5------------------------------|
Eb-------------3----------3---------------------|

Chorus "And we learn as we age, we've learned nothing"
Gb--------------------------------------------------------|
Db--------------------------------------------------------|x2
Ab------------------------------------------------55------|
Eb-3-0-3-0-3-0-3-0-3-0-2-0-5-0-7-0-7-0-7-0-7-0-7-0--55----|

Pre-verse-No singing
Gb---------------------------|
Db---------------------------|
Ab---------------------------|
Eb-5\15/7h5-5/3p2-5h7-7p5-0~-|

Verse "When it got cold outside,smoke beneath the playground lights"
Gb-----------------------------|
Db-----------------------------|x3
Ab-----------------------------|
Eb--5h7-7p5-5/3-3p2-5h7-7p5-0~-|

Pre-chorus "And everything I said about how messed up your head is"
Gb--------------------------------------2-2-4-2-|
Db------2-4-2-0----2-4-2-0--5-4-2-0-2-4--4------|x1
Ab-2--5----------5------------------------------|
Eb-------------3----------3---------------------|

Chorus "And we learn as we age, we've learned nothing"
Gb--------------------------------------------------------|
Db--------------------------------------------------------|x2
Ab------------------------------------------------55------|
Eb-3-0-3-0-3-0-3-0-3-0-2-0-5-0-7-0-7-0-7-0-7-0-7-0--55----|

Chorus part-2/Post bridge "And my body leaks like a sieve. Take the picture from off the wall"
Gb-----------------------2-4-------2--|
Db------------------0-2-4-4-2-0-2-4-4-|x4
Ab------------------------------------|
Eb-33333333333333333------------------|

Bridge-No singing
Gb----------------------|
Db----------------------|x2
Ab-22-----------22------|
Eb---33-00-2-5----33-0~-|

Gb---------------------------|
Db---------------------------|x2
Ab-2-2-2---------------------|
Eb-------3-3-3-0-0-0-02-5-0~-|

Chorus part-2 "And we learn as we age, we've learned nothing"
Gb-----------------------2-4-------2--|
Db------------------0-2-4-4-2-0-2-4-4-|x2
Ab------------------------------------|
Eb-33333333333333333------------------|

Outro-No singing
Gb--------------------------------------2-2-4-2-|
Db------2-4-2-0----2-4-2-0--5-4-2-0-2-4--4------|x1
Ab-2--5----------5------------------------------|
Eb-------------3----------3---------------------|


Gb--------------------------------------2-2-4----|
Db------2-4-2-0----2-4-2-0--5-4-2-0-2-4--4-4-----|x1
Ab-2--5----------5---------------------------2~--|
Eb-------------3----------3----------------------|


There it is, it should be 100% percent correct.
            
Submit corrections


        Jaws Theme Swimming lessons Hard to play? Try these video lessons and learn fast Jaws Theme Swimming lessons
        
↑ Back to top | Tablatures and chords for acoustic guitar and electric guitar, ukulele, drums are parodies/interpretations of the original songs. You may use it for private study, scholarship, research or language learning purposes only