» » »

Brand New - Jaws Theme Swimming Tabs

Artists:  A B C D E F G H I J K L M N O P Q R S T U V W X Y Z # 

Jaws Theme Swimming Tabs

(ver. 2) Click to play this song!
Brand New
 Rating:
4/5 (4 votes)

 Jaws Theme Swimming lessons Tabs too difficult? Try these video lessons and learn fast
 
                Brand New - Jaws Theme Swimming

Tune your guitar down 1/2 step

Verse x4
Prechorus x1
Chorus 1 x2
Verse x4
Prechorus x1
Chorus 1 x2
Chorus 2 x4
Bridge 1 x2
Bridge 2 x2
Chorus 2 x2


Verse
|------------------------------------------------------------------0~-------|
|------3-3-------3-3-------3-3-------5-5----------3-3-------3-3----3~-------|
|------4-4-------4-4-------4-4-------4-4----------4-4-------4-4----4~-------|
|------------------------------------------------------------------0~-------|
|--0h2-------2p0------------------------------0h2-------2p0-----------------|
|----------------------0h3-------3p2-------------------------------upstoke--|

Prechorus
|---0~-------------0~--------------0~--------------0~-----------------------|
|---3~-------------3~--------------3~--------------3~-----------------------|
|---4~-------------4~--------------4~--------------4~-----------------------|
|---0~-------------0~--------------0~--------------0~-----------------------|
|---------------------------------------------------------------------------|
|---downstroke-----upstroke--------upstroke--------downstroke----pickslide--|

Chorus 1
|---------------------------------------------------------------------------|
|---------------------------------------------------------------------------|
|---------------------------2--3--4--4---4---4---4---4----3--2--------------|
|--5--5---5---5---5---5-----2--3--4--4---4---4---4---4----3--2--------------|
|--5--5---5---5---5---5-----0--1--2--0h2-0h2-0h2-0h2-0h2--1--0--------------|
|--3--0h3-0h3-0h3-0h3-0h3---------------------------------------------------|

Chorus 2
|---------------------------------------------------------------------------|
|---------------------------------------------------------------------------|
|-----------------------------4--4--4--4--4--4--4--4------------------------|
|---5--5--5--5--5--5--5--5----4--4--4--4--4--4--4--4------------------------|
|---5--5--5--5--5--5--5--5----2--2--2--2--2--2--2--2------------------------|
|---3--3--3--3--3--3--3--3--------------------------------------------------|

Bridge 1
|---------------------------------------------------------------------------|
|---------------------------------------------------------------------------|
|-------------------------------------------------------4-------------------|
|---9-9---9-7-7---7-5-5---5--7--9-9---9-7-7---7-------5---------------------|
|---9-9---9-7-7---7-5-5---5--7--9-9---9-7-7---7-----5-----------------------|
|---7-7---7-5-5---5-3-3---3--5--7-7---7-5-5---5---3-------------------------|

Bridge 2
|---------------------------------------------------------------------------|
|---------------------------------------------------------------------------|
|---------------------------------------------------------------4-----------|
|---9--9--9--7--7--7--5--5--5--5--5--7--9--9--9--7--7--7------5-------------|
|---9--9--9--7--7--7--5--5--5--5--5--7--9--9--9--7--7--7----5---------------|
|---7--7--7--5--5--5--3--3--3--3--3--5--7--7--7--5--5--5--3-----------------|
            
Submit corrections


        Jaws Theme Swimming lessons Hard to play? Try these video lessons and learn fast Jaws Theme Swimming lessons
        
↑ Back to top | Tablatures and chords for acoustic guitar and electric guitar, ukulele, drums are parodies/interpretations of the original songs. You may use it for private study, scholarship, research or language learning purposes only