» » »

Brand New - I Will Play My Game Beneath The Spin Light Bass

Artists:  A B C D E F G H I J K L M N O P Q R S T U V W X Y Z # 

I Will Play My Game Beneath The Spin Light Bass

(ver. 2) Click to play this song!
Brand New
 Rating:
4/5 (4 votes)

 I Will Play My Game Beneath The Spin Light lessons Tabs too difficult? Try these video lessons and learn fast
 
                Band: Brand New
| /  slide up
| \  slide down
| h  hammer-on
| p  pull-off
| ~  vibrato
| +  harmonic
| x  Mute note
Intro:
Gb|------|
Db|------| 
Ab|--0~--|
Eb|------|

Chorus:
Gb|-----------------------------------|
Db|-----------------------------------|
Ab|--3-3-3-3-3-3-3-3-3-3-3-3-3-3-3-3--|
Eb|-----------------------------------|

Gb|--------------------------------0--|
Db|--3-3-3-3-3-3-3-3-3-3-3-3-3-2-3----|
Ab|-----------------------------------|
Eb|-----------------------------------|

Gb|-----------------------------------|
Db|-----------------------------------|
Ab|-----------------------------------|
Eb|--3-3-3-3-3-3-3-3-3-3-3-3-3-3-3-3--|

Verse:
Gb|---------------------------------------------|
Db|---------------------------------------------| 
Ab|--0~--------3-3-3-3-3-3-3-3------------------|
Eb|-------0~-------------------0-0-0-0/3-3-3-3--|

Gb|-------------------------------------------------------------------|
Db|-------------------------------------------------------------------| x2
Ab|--0-0-0-0-0-0-0-0-----------------3-3-3-3-3-3-3-3------------------|
Eb|------------------0-0-0-0-0-0-0-0-----------------0-0-0-0/3-3-3-3--|

Chorus x2

Build Up:
Gb|---------------------------|
Db|---------------------------| 
Ab|--3-3-3-3-3-3-3-3-3-3-3-3--|
Eb|---------------------------|

Chorus 2: x2
Gb|-----------------------------------|
Db|-----------------------------------|
Ab|--3-3-3-3-3-3-3-3-3-3-3-3-3-3-3-3--|
Eb|-----------------------------------|

Gb|-----------------------------------|
Db|--3-3-3-3-3-3-3-3-3-3-3-3-3-3-3-3--|
Ab|-----------------------------------|
Eb|-----------------------------------|

Gb|-----------------------------------|
Db|-----------------------------------|
Ab|-----------------------------------|
Eb|--3-3-3-3-3-3-3-3-3-3-3-3-3-3-3-3--|

Then:
Gb|-----------------------------------|
Db|-----------------------------------|
Ab|--3-3-3-3-3-3-3-3-3-3-3-3-3-3-3-3--|
Eb|-----------------------------------|




Outro:
Gb|-------------------------------------------------------------------|
Db|-------------------------------------------------------------------|
Ab|--0-0-0-0---------0-0-0-0---------0-0-0-0---------0-0-0-0----------|
Eb|----------0-0-0-0---------0-0-0-0---------0-0-0-0---------0-0-0-0--|
            
Submit corrections


        I Will Play My Game Beneath The Spin Light lessons Hard to play? Try these video lessons and learn fast I Will Play My Game Beneath The Spin Light lessons
        
↑ Back to top | Tablatures and chords for acoustic guitar and electric guitar, ukulele, drums are parodies/interpretations of the original songs. You may use it for private study, scholarship, research or language learning purposes only