» » »

Brand New - I Will Play My Game Beneath The Spin Light Tabs

Artists:  A B C D E F G H I J K L M N O P Q R S T U V W X Y Z # 

I Will Play My Game Beneath The Spin Light Tabs

(ver. 2) Click to play this song!
Brand New
 Rating:
4/5 (4 votes)

 I Will Play My Game Beneath The Spin Light lessons Tabs too difficult? Try these video lessons and learn fast
 
                ----------------------------------------------------------------------------
      I Will Play My Game Beneath The Spin Light - Brand New
-----------------------------------------------------------------------------
NOTE:figure out the strumming yourself

Tuning: half a step down
when u mute the big E u can also not play it either whey works
                        DO ALL INTRO 4 TIMES

                               INTRO
e|-----0-------------0--------------0--------1-------3---------------------|
B|-----1-------------0--------------1--------1-------0---------------------|
G|-----2 X 12--------0 X 12---------0 X 12---2 X 5---0 X 5-----------------|
D|-----2-------------2--------------2--------3-------0---------------------|
A|-----0-------------2--------------3--------3-------2---------------------|
E|-----x-------------x--------------x--------1-------3---------------------|

                              CHORUS
e|-----3----------------1-----------3--------------------------------------|
B|-----3----------------1-----------3--------------------------------------|
G|-----5----------------2-----------4--------------------------------------|
D|-----5-X 16-----------3-X 16------5-X 16---------------------------------|
A|-----3----------------3-----------5--------------------------------------|
E|-----3----------------1-----------3--------------------------------------|

e|-------------------------------------------------------------------------|
B|----------------------------------------------------------------1----1111|
G|----------1-1-------------1-1-------------1-1-------------1-1---0----0000|
D|----------2-2-----2-2-----2-2-----2-2-----2-2-----2-2-----2-2---2----2222|
A|------x-x-2-2-x-x-2-2-x-x-2-2-x-x-2-2-x-x-2-2-x-x-2-2-x-x-2-2---3----3333|
E|-------------------------------------------------------------------------|
                               DO THIS 4 TIMES
e|-----0-------------0-----------0--------1-------3------------------------|
B|-----1-------------0-----------1--------1-------3------------------------|
G|-----2 X 12]-------0 X 12------0 X 12---2 X 5---0 X 5--------------------|
D|-----2-------------2-----------2--------3-------0------------------------|
A|-----0-------------2-----------3--------3-------2------------------------|
E|-----x-------------x-----------x--------1-------3------------------------|
e|-------------------------------------------------------------------------|

                               DO THIS 2 TIMES
e|-----3----------------1-----------3--------------------------------------|
B|-----3----------------1-----------1--------------------------------------|
G|-----5----------------2-----------4--------------------------------------|
D|-----5-X 16-----------3-X 16------5-X 16---------------------------------|
A|-----3----------------3-----------5--------------------------------------|
E|-----3----------------1-----------3--------------------------------------|

                              use distortion here
e|-------------------------------------------------------------------------|
B|----------------------------------------------------------------1----1111|
G|----------1-1-------------1-1-------------1-1-------------1-1---0----0000|
D|----------2-2-----2-2-----2-2-----2-2-----2-2-----2-2-----2-2---2----2222|
A|------x-x-2-2-x-x-2-2-x-x-2-2-x-x-2-2-x-x-2-2-x-x-2-2-x-x-2-2---3----3333|
E|-------------------------------------------------------------------------|

                        SECOND BACKROUND GUITAR
E|----------0----0------0------0-0-------0-------0----0-0-----0------0----0|
B|------------1-----1-3----3--------1-------1-3----3-------1----1-3----3---|
G|-------------------------------------------------------------------------|
D|-------------------------------------------------------------------------|
A|-------------------------------------------------------------------------|
E|-------------------------------------------------------------------------|
                               DO THIS 4 TIMES
e|-----0-------------0-----------0--------1-------3------------------------|
B|-----1-------------0-----------1--------1-------0------------------------|
G|-----2 X 12--------0 X 12------0 X 12---2 X 5---0 X 5--------------------|
D|-----2-------------2-----------2--------3-------0------------------------|
A|-----0-------------2-----------3--------3-------2------------------------|
E|-----x-------------x-----------x--------1-------3------------------------|

                              use distortion here
e|-------------------------------------------------------------------------|
B|----------------------------------------------------------------1----1111|
G|----------1-1-------------1-1-------------1-1-------------1-1---0----0000|
D|----------2-2-----2-2-----2-2-----2-2-----2-2-----2-2-----2-2---2----2222|
A|------x-x-2-2-x-x-2-2-x-x-2-2-x-x-2-2-x-x-2-2-x-x-2-2-x-x-2-2---3----3333|
E|-------------------------------------------------------------------------|

                              do this two times
e|-----0-------------0-----------0--------1-------3------------------------|
B|-----1-------------0-----------1--------1-------3------------------------|
G|-----2 X 12--------0 X 12------0 X 12---2 X 5---0 X 5--------------------|
D|-----2-------------2-----------2--------3-------0------------------------|
A|-----0-------------2-----------3--------3-------2------------------------|
E|-----x-------------x-----------x--------1-------3------------------------|
 
         what ever after the chorus should be called do this twice 
e|------3------------------------0----------------------------------0------|
B|------3------------------------1----------------------------------0------|
G|------5------------------------2----------------------------------2------|
D|------5-X 16-------------------2-X 16-----------------------------2-X 16-|
A|------3------------------------0----------------------------------2------|
E|------3------------------------x----------------------------------x------|

                             use distortion here
e|-------------------------------------------------------------------------|
B|----------------------------------------------------------------1----1111|
G|----------1-1-------------1-1-------------1-1-------------1-1---0----0000|
D|----------2-2-----2-2-----2-2-----2-2-----2-2-----2-2-----2-2---2----2222|
A|------x-x-2-2-x-x-2-2-x-x-2-2-x-x-2-2-x-x-2-2-x-x-2-2-x-x-2-2---3----3333|
E|-------------------------------------------------------------------------|

Thanks if you red this tab im a big fan of Brand New so i hope u enjoi!Rate me!


| /  slide up
| \  slide down
| h  hammer-on
| p  pull-off
| ~  vibrato
| +  harmonic
| x  Mute note
| X  Multiply strumming by
===============================================================================
            
Submit corrections


        I Will Play My Game Beneath The Spin Light lessons Hard to play? Try these video lessons and learn fast I Will Play My Game Beneath The Spin Light lessons
        
↑ Back to top | Tablatures and chords for acoustic guitar and electric guitar, ukulele, drums are parodies/interpretations of the original songs. You may use it for private study, scholarship, research or language learning purposes only