» » »

Brand New - Handcuffs Tabs

Artists:  A B C D E F G H I J K L M N O P Q R S T U V W X Y Z # 

Handcuffs Tabs

(ver. 2) Click to play this song!
Brand New
 Rating:
4/5 (4 votes)

 Handcuffs lessons Tabs too difficult? Try these video lessons and learn fast
 
                (Intro)
Handcuffs by: Brand New
Tuning: Standard (EADGBe)

E-------------------------------------------|
B-----0-------0-------0-------0-------------|
G---4---4---4---4---7---7---7---0-----------|  x3
D-5-------7-------9-------9-----------------|
A-------------------------------------------|
E-------------------------------------------|

E-------------------------------------------|
B-----0-------0-------0-------0-------------|
G---4---4---4---4---4---4---4---------------|
D-4-------4-------5-------5-----------------|
A-------------------------------------------|
E-------------------------------------------|
            
Submit corrections


        Handcuffs lessons Hard to play? Try these video lessons and learn fast Handcuffs lessons
        
↑ Back to top | Tablatures and chords for acoustic guitar and electric guitar, ukulele, drums are parodies/interpretations of the original songs. You may use it for private study, scholarship, research or language learning purposes only