» » »

Brand New - Handcuffs Tabs

Artists:  A B C D E F G H I J K L M N O P Q R S T U V W X Y Z # 

Handcuffs Tabs

(ver. 1) Click to play this song!
Brand New
 Rating:
4/5 (4 votes)

 Handcuffs lessons Tabs too difficult? Try these video lessons and learn fast
 
                Intro/verse:
[Guitar 1]
e|------------------------2-------2----------------------------------------|
B|------3--------5------3---3---3--3---------0----0--------3-------3-------|
G|----4---4----6--6---4-------4------------2--2--2--2----4---4---4---4-----|
D|--5--------7------------------------x3--4-----4------5-------5-----------|
A|-------------------------------------------------------------------------|
E|-------------------------------------------------------------------------|

[Guitar 2]
e|------------------------------------2-3----|
B|------------------------------------2-3----|
G|--4-4-4-4--6-6-6-6-7-7-7-7-7--------2-4----|
D|--5-5-5-5--7-7-7-7-9-9-9-9-9----x3--4-5----|
A|------------------------------------4-5----|
E|------------------------------------2-3----|

Chorus/Bridge: (I'm not sure about this, it's hard to hear)
e|--3-3-3-3-3------------------------------------|
B|--3-3-3-3-3--3-3-3-3-3-3--3-3-3-3-3-3-3-3-3----|
G|--0-0-0-0-0--2-2-2-2-2-2--x-x-x-x-x-x-2-2-2----|
D|--0-0-0-0-0--0-0-0-0-0-0--2-2-2-2-2-2-0-0-2----|
A|--2-2-2-2-2--x-x-x-x-x-x--2-2-2-2-2-2-x-x-0----|
E|--3-3-3-3-3--2-2-2-2-2-2--0-0-0-0-0-0-2-3------|
            
Submit corrections


        Handcuffs lessons Hard to play? Try these video lessons and learn fast Handcuffs lessons
        
↑ Back to top | Tablatures and chords for acoustic guitar and electric guitar, ukulele, drums are parodies/interpretations of the original songs. You may use it for private study, scholarship, research or language learning purposes only