Home » B » Box Car Racer »

Box Car Racer - There Is Tabs

Artists:  A B C D E F G H I J K L M N O P Q R S T U V W X Y Z # 

There Is Tabs

(ver. 3) Click to play this song!
Box Car Racer
Box Car Racer – There Is


I love this one and it is really easy to play … you can learn this in … 5 min !
Praise Tom .. 
Intro: 

e|-------------------------------------------------------------
B|-------------------------------------------------------------
G|-8-8-8-8-8-8-8-8-8-8-6-6-6-6-6-6-6-6-6-6-4-4-4-4-4-4-4-4-4-4-
D|-8-8-8-8-8-8-8-8-8-8-6-6-6-6-6-6-6-6-6-6-4-4-4-4-4-4-4-4-4-4-
A|-6-6-6-6-6-6-6-6-6-6-4-4-4-4-4-4-4-4-4-4-2-2-2-2-2-2-2-2-2-2-
E|-------------------------------------------------------------

----------------------|
----------------------|
-6-6-6-6-6/-3-3-3-3-3-| 
-6-6-6-6-6/-3-3-3-3-3-|
-4-4-4-4-4/-1-1-1-1-1-|
----------------------|

Verse:

e|-------------------------------------------------------------
B|-------------------------------------------------------------
G|-4-4-4-4-4-4-4-4-4-4-----------------------------------------
D|-4-4-4-4-4-4-4-4-4-4-4-4-4-4-4-4-4-4-4-4-6-6-6-6-6-6-6-6-6-6-
A|-2-2-2-2-2-2-2-2-2-2-4-4-4-4-4-4-4-4-4-4-6-6-6-6-6-6-6-6-6-6-
E|---------------------2-2-2-2-2-2-2-2-2-2-4-4-4-4-4-4-4-4-4-4-

-------------------|
-------------------|
-9-9-9-9-9-9-9-9-9-| 
-9-9-9-9-9-9-9-9-9-|
-7-7-7-7-7-7-7-7-7-|
-------------------|

Chorus:

Guitar 1
e|-------------------------------------------------------------
B|-------------------------------------------------------------
G|-4-4-4-4-4-4-4-4-4-4-----------------------------------------
D|-4-4-4-4-4-4-4-4-4-4-4-4-4-4-4-4-4-4-4-4-6-6-6-6-6-6-6-6-6-6-
A|-2-2-2-2-2-2-2-2-2-2-4-4-4-4-4-4-4-4-4-4-6-6-6-6-6-6-6-6-6-6-
E|---------------------2-2-2-2-2-2-2-2-2-2-4-4-4-4-4-4-4-4-4-4-




---------------------|
---------------------|
---------------------| 
-4-4-4-4-4-4-4-4-4-4-|
-4-4-4-4-4-4-4-4-4-4-|
-2-2-2-2-2-2-2-2-2-2-|


Guitar 2
e|-----------------------|
B|-0-0-0-2-0---0-0-0-2-0-|
G|-----------------------| play behind the acoustic x4
D|-----------------------|
A|-----------------------|
E|-----------------------|

Bridge:

e|-----------------------------------------
B|-----------------------------------------
G|-8-8-8-8-8-8-8-8-8-8-9-9-9-9-9-9-9-9-9-9-
D|-8-8-8-8-8-8-8-8-8-8-9-9-9-9-9-9-9-9-9-9- X 3
A|-6-6-6-6-6-6-6-6-6-6-7-7-7-7-7-7-7-7-7-7-
E|-----------------------------------------

Then...

-----------------------------------------|
-----------------------------------------|
-8-8-8-8-8-8-8-8-8-8-6-6-6-6-6-6-6-6-6-6-|
-8-8-8-8-8-8-8-8-8-8-6-6-6-6-6-6-6-6-6-6-|
-6-6-6-6-6-6-6-6-6-6-4-4-4-4-4-4-4-4-4-4-|
-----------------------------------------|

The order ……… 

Intro  X 2
Verse  X 2
Chorus X 2
Intro  X 1
Verse  X 2
Chorus X 2
Bridge X 1
Chorus X 4

Finish on

e|---|
B|---|
G|-4-|
D|-4-|
A|-2-|
E|---|
            
Submit corrections

↑ Back to top | Tablatures and chords for acoustic guitar and electric guitar, ukulele, drums are parodies/interpretations of the original songs. You may use it for private study, scholarship, research or language learning purposes only