Home » B » Box Car Racer »

Box Car Racer - Mandy Bass

Artists:  A B C D E F G H I J K L M N O P Q R S T U V W X Y Z # 

Mandy Bass

(ver. 1) Click to play this song!
Box Car Racer
there are no other bass tabs for this song; so i decided to do it myself

Mandy - Box Car Racer (bass tab)

intro
|-----------------------------------------------------|
|-----------------------------------------------------|
|--9~~~~~~~----7~~~~~~~~----9~~~~~~~~----7~~~~~~~~~~--|
|-----------------------------------------------------|

verse
|----------------------------------------------------|
|-o--9------6--------------------------------------o-| x2
|-o----------------9-------9-------7-------9-------o-|
|----------------------------------------------------|

chorus
|----------------------------------------------------|
|-o—9-----9-----6----------------------------------o-| x2
|-o----------------------7-----9-----7-------9-----o-|
|----------------------------------------------------|

bridge
|-----------------------------------------------------|
|-----------------------------------------------------|
|--9~~~~~~~----7~~~~~~~~----9~~~~~~~~----7~~~~~~~~~~--|
|-----------------------------------------------------|

verse
|----------------------------------------------------|
|-o--9------6--------------------------------------o-| x2
|-o----------------9-------9-------7-------9-------o-|
|----------------------------------------------------|

chorus
|----------------------------------------------------|
|-o—9-----9-----6----------------------------------o-| x4
|-o----------------------7-----9-----7-------9-----o-|
|----------------------------------------------------|

bridge pt. 1
|----------------------------------------------------6~~~---3~~~------|
|-o-----------------------------------------------------------------o-| x4
|-o----6-6-6-6-6-6-6-6-7-7-7-7-7-7-7-7------------------------------o-|
|---------------------------------------------------------------------|



bridge pt. 2
|-----------------------------------------------------------|
|--6--------------------------------------------------------|
|-------9-----7-----7------7------7-----7-----7-----7------—|
|-----------------------------------------------------------|

chorus
|----------------------------------------------------|
|-o---9-----9-----6--------------------------------o-| x4
|-o----------------------7-----9-----7-------9-----o-|
|----------------------------------------------------|

end
|------6----6------3--------------------------------|
|-o----------------------4-----6-----4-----6------o-| x4
|-o-----------------------------------------------o-|
|---------------------------------------------------|
            
Submit corrections

↑ Back to top | Tablatures and chords for acoustic guitar and electric guitar, ukulele, drums are parodies/interpretations of the original songs. You may use it for private study, scholarship, research or language learning purposes only