Home » B » Box Car Racer »

Box Car Racer - There Is Tabs

Artists:  A B C D E F G H I J K L M N O P Q R S T U V W X Y Z # 

There Is Tabs

(ver. 2) Click to play this song!
Box Car Racer
Boxcar racer 

There is                         >>>>>>>please rate my tab<<<<<<<

Intro

e|-------------------------------------------------------------------------------------|
B|-------------------------------------------------------------------------------------|
G|-88-88-88-88-88---88888---66-66-66-66---66666---44-44-44-44---44444---66-666---33-333|
D|-88-88-88-88-88---88888---66-66-66-66---66666---44-44-44-44---44444---xx-xxx---xx-xxx|
A|-66-66-66-66-66---66666---44-44-44-44---44444---22-22-22-22---22222---44-444---11-111|
E|-------------------------------------------------------------------------------------|


Verse

e|----------------------------------------------------------------------------------------|
B|----------------------------------------------------------------------------------------|
G|-44-44-44-44---44444-----------------------------------------------99-99-99-99---99999--|
D|-44-44-44-44---44444---44-44-44-44---44444---66-66-66-66---66666---99-99-99-99---99999--|
A|-22-22-22-22---22222---44-44-44-44---44444---66-66-66-66---66666---77-77-77-77---77777--|
E|-----------------------22-22-22-22---22222---44-44-44-44---44444------------------------|

Chorus Guitar 1

e|----------------------------------------------------------------------------------------|
B|----------------------------------------------------------------------------------------|
G|-44-44-44-44---44444--------------------------------------------------------------------|
D|-44-44-44-44---44444---44-44-44-44---44444---66-66-66-66---66666---44-44-44-44---44444--|
A|-22-22-22-22---22222---44-44-44-44---44444---66-66-66-66---66666---44-44-44-44---44444--|
E|-----------------------22-22-22-22---22222---44-44-44-44---44444---22-22-22-22---22222--|


Chorus Guitar 2

e|--------------|
B|-0--0--0-2-0--|    guitar 2 plays this all the way through the chorus 
G|--------------| 
D|--------------|
A|--------------|
E|--------------|

Interlude part 1

e|----------------------------------------------|
B|----------------------------------------------|
G|-88-88-88-88---88888---99-99-99-99---99999----|
D|-88-88-88-88---88888---99-99-99-99---99999----|
A|-66-66-66-66---66666---77-77-77-77---77777----|
E|----------------------------------------------|
 
Interlude part 2
e|----------------------------------------------|
B|----------------------------------------------|
G|-88-88-88-88---88888---66-66-66-66---66666----|
D|-88-88-88-88---88888---66-66-66-66---66666----|
A|-66-66-66-66---66666---44-44-44-44---44444----|
E|----------------------------------------------|

End on

e|-----|
B|-----|            
G|-4---|
D|-4---|
A|-2---|
E|-----|

Intro x 2                               This tab is 100% CORRECT
Verse x 4
Chorus x 2                       >>>>>>>>> PLEASE RATE MY TAB!!!!!!!!!!!!<<<<<<<<<
Intro x 1                  
Verse x 2
Chorus x 2
Interlude 1 x 2
Interlude 2 x 2
Chorus x 2  [ ONLY guitar 1 ]
Chorus x 2  [ BOTH guitars ]
End x 1
            
Submit corrections

↑ Back to top | Tablatures and chords for acoustic guitar and electric guitar, ukulele, drums are parodies/interpretations of the original songs. You may use it for private study, scholarship, research or language learning purposes only