Home » B » Box Car Racer »

Box Car Racer - There Is Bass

Artists:  A B C D E F G H I J K L M N O P Q R S T U V W X Y Z # 

There Is Bass

(ver. 1) Click to play this song!
Box Car Racer
when Boxcar played on Leno this is what ANTONY CELESTINO
played as the bass . I know there is a few other tabs for this song but
this tab is the best. You may think this looks wrong but I am sure it is
100% CORRECT.

  -Figured out and Submitted by Dejackamo Von Rictor from Barstow CA
INTRO: 
G----------------------------------------------------------------
D----------------------------------------------------------------
A-2-22-2-2-2222----------------------------------------1-1-1111--
E---------------2-22-2-2-2222--0-00-0-0-0000--2-2-22-2-----------

VERSES/CHORUSES/ENDING
G--------------------------------------------------------------
D--------------------------------------------------------------
A-2-22-2-2-2222------------------------------------------------
E---------------2-22-2-2-2222--4-4-44-4-4-4444--2-22-2-2-2222--

BRIDGE (don’t use the E--7-- octave for this,it doesn’t sound good at all)
G---------------------------------------------------------------
D---------------------------------------------------------------
A--6-66-6-6-6666--7-77-7-7-7777--2-22-2-2-2222--7-77-7-7-7777---
E---------------------------------------------------------------

G-------------------------------------------------------------
D-------------------------------------------------------------
A--6-66-6-6-6666--7-77-7-7-7777--2-22-2-2-2222----------------
E----------------------------------------------2-22-2-2-2222--
            
Submit corrections

↑ Back to top | Tablatures and chords for acoustic guitar and electric guitar, ukulele, drums are parodies/interpretations of the original songs. You may use it for private study, scholarship, research or language learning purposes only