Home » B » Box Car Racer »

Box Car Racer - Bcr There Is Tabs

Artists:  A B C D E F G H I J K L M N O P Q R S T U V W X Y Z # 

Bcr There Is Tabs

(ver. 1) Click to play this song!
Box Car Racer
All I have right now is the intro, i'll probably have the rest in a couple of days.

Intro
E-----------------------------------------------------------------|
B-22-22-22-22-2222--00-00-00-00-0000-22-22-22-22-2222-------------|
G-22-22-22-22-2222--44-44-44-44-4444-22-22-22-22-2222-------------|
D-22-22-22-22-2222--22-22-22-22-2222-22-22-22-22-2222-------------|
A-44-44-44-44-4444--44-44-44-44-4444-00-00-00-00-0000-------------|
E-----------------------------------------------------------------|

E-----------------------------------------------------------------|
B-0000--00000000--------------------------------------------------|
G-4444--11111111--------------------------------------------------|
D-2222--22222222--------------------------------------------------|
A-4444--00000000--------------------------------------------------|
E-----------------------------------------------------------------|
            
Submit corrections

↑ Back to top | Tablatures and chords for acoustic guitar and electric guitar, ukulele, drums are parodies/interpretations of the original songs. You may use it for private study, scholarship, research or language learning purposes only