Home » B » Box Car Racer »

Box Car Racer - Letter To God Bass

Artists:  A B C D E F G H I J K L M N O P Q R S T U V W X Y Z # 

Letter To God Bass

(ver. 1) Click to play this song!
Box Car Racer
(1)
note : '>' means 8 times

There's just bass in the last chorus but you can play the piano part in the bridge with the bass

Piano Part
G:-7---0---7-5--0--5-7--0--7-5-4-2-0-----5-5-7-7--0--9--7--5--7--4-12--19--17-16-17-12--17-19-12-
D:-----------------------------------0-----------------------------------------------------------
A:-----------------------------------------------------------------------------------------------
E:-----------------------------------------------------------------------------------------------

G:-19-17--16--14-12--7---12--5---12-12--7---12-14---16-17-
D:--------------------------------------------------------
A:--------------------------------------------------------
E:--------------------------------------------------------

Chorus
1st part
G:---------------------------
D:---------------------------
A:---------------------------
E:-0-0--0-0--02--3-3--3-3--3-

2nd part
G:---------------------
D:---------------------
A:---------------------
E:-000000000000002-3>>-

3rd part
G:---------------
D:---------------
A:---------------
E:-0>>8>>3>>10>>-
            
Submit corrections

↑ Back to top | Tablatures and chords for acoustic guitar and electric guitar, ukulele, drums are parodies/interpretations of the original songs. You may use it for private study, scholarship, research or language learning purposes only