Home » B » Box Car Racer »

Box Car Racer - Letter To God Chords

Artists:  A B C D E F G H I J K L M N O P Q R S T U V W X Y Z # 

Letter To God Chords

(ver. 1) Click to play this song!
Box Car Racer
Listen for rhythm

An x represents where you strum without actually plaucking the
note. You'll get it if you listen.
Acoustic Verse

e|-3-xx-3-xx--3/3--3-xx-3-xx-3-3-|
B|-3-xx-3-xx--3/3--3-xx-3-xx-3-3-|
G|-0-xx-0-xx--0/0--0-xx-0-xx-0-0-|
D|-2-xx-2-xx--2/0--0-xx-0-xx-0-0-|
A|-2-xx-2-xx--2/0--2-xx-2-xx-2-2-|
E|-0-xx-0-xx--0/2--3-xx-3-xx-3-3-|


Acoustic Chorus

e|-3-xx-3-xx-3-xx-3-xx-3-xx-3-xx-3-xx-3-xx-3-xx-3-xx-3-xx-3-|
B|-3-xx-3-xx-3-xx-3-xx-3-xx-3-xx-3-xx-3-xx-3-xx-3-xx-3-xx-3-|
G|-0-xx-0-xx-0-xx-0-xx-0-xx-0-xx-0-xx-0-xx-0-xx-2-xx-2-xx-2-|
D|-2-xx-2-xx-2-xx-2-xx-2-xx-2-xx-0-xx-0-xx-0-xx-2-xx-2-xx-2-|
A|-2-xx-2-xx-2-xx-3-xx-3-xx-3-xx-2-xx-2-xx-2-xx-0-xx-0-xx-0-|
E|-0-xx-0-xx-0-xx-0-xx-0-xx-0-xx-3-xx-3-xx-3-xx-x-xx-x-xx-x-|

Now the Easy part
Once the distortion kicks in, the 'complex' chords are replaced
with simple bar chords.

so the verse turns into

E5 E5 E5 Gb5 G5 G5 G5

And the Chorus turns into

E5 E5 E5 C5 C5 C5 G5 G5 G5 A5 A5 A5



CHORDS
  E5   Gb5    G5     C5     A5
e-X-----X------X------X------X
B-X-----X------X------X------X
G-X-----X------X------5------X
D-2-----4------5------5------7
A-2-----4------5------3------7 
E-0-----2------3------X------5
            
Submit corrections

↑ Back to top | Tablatures and chords for acoustic guitar and electric guitar, ukulele, drums are parodies/interpretations of the original songs. You may use it for private study, scholarship, research or language learning purposes only