Home » B » Box Car Racer »

Box Car Racer - Letter To God Tabs

Artists:  A B C D E F G H I J K L M N O P Q R S T U V W X Y Z # 

Letter To God Tabs

(ver. 2) Click to play this song!
Box Car Racer
Note              : Coolest song I've learned just got this tab prog. I figured the 
whole song w/ my friend
Tuning            : Standard (EADGBe)

[Intro]
e|-----------------------------------------------------------------|
B|-----------------------------------------------------------------|
G|-----------------------------------------------------------------|
D|----555555555555--0--4---55555555--------------------------------|
A|----222222222222--0--4---55555555--------------------------------|
E|----000000000000--0--2---33333333--------------------------------|

[Verse]
e|-------------------------------------------------------------------------|
B|-------------------------------------------------------------------------|
G|-------------------------------------------------------7777--------------|
D|--555555---55555555--------55555-----5555--- 5555------7777--------------|
A|--222222---55555555---x2---22222-----3333----5555------5555--------------|
E|--000000---33333333--------00000-------------3333------------------------|

Ok After the Chorus theres the interlude.One part is for Piano but I tabbed it
for guitar.So theres that part then theres the background guitar playing so
it sounds cool to play it together on 2 guitars,Im not 2 sure on the piano part
theres probably more.

[Interlude 1A]
e|-------------------------------------------------------------------------|
B|-------------------------------------------------------------------------|
G|-7--0----7--5--0----5--7--0-----7---5----4---2---------------------------|
D|-------------------------------------------------------------------------|
A|-------------------------------------------------------------------------|
E|-------------------------------------------------------------------------|

[Interlude 1B]
e|-------------------------------------------------------|
B|-------------------------------------------------------|
G|--0----------2--0------5--5--5--7----------9--7--5-----|
D|--------0----------------------------------------------|
A|-------------------------------------------------------|
E|-------------------------------------------------------|

[Interlude 1C]
e|----------------------------------------------------------------------|--|
B|----------------------------------------------------------------------|--|
G|--7--5--7--0----5------7--5--7--0-----5----7--5--7--0-----5----9--7--5|--|
D|----------------------------------------------------------------------|--|
A|----------------------------------------------------------------------|--|
E|----------------------------------------------------------------------|--|

[Interlude 1D]
e|-------------------------------------------------------------------------|
B|-------------------------------------------------------------------------|
G|----0-------2--0-------5---5--5-------7--5--7--9-----------------------|
D|--------0--------------------------------------------------------------|
A|-------------------------------------------------------------------------|
E|-------------------------------------------------------------------------|

[Interlude(Guitar Background of Interlude)]
e|---------------------------------|
B|---------------------------------|
G|---------------------------------|
D|5555555555--7777777777--99999999-|
A|5555555555--7777777777--99999999-|
E|3333333333--5555555555--77777777-|

[Interlude 2B]
e|----------|-------------------------|------------------------------------|
B|----------|-------------------------|------------------------------------|
G|----------|-------------------------|------------------------------------|
D|777777777-|--555555--7777777--999999--101010-----------------------------|
A|777777777-|--555555--7777777--999999-101010------------------------------|
E|555555555-|--333333--5555555--777777-888888------------------------------|
Then repeat the first part of the Interlude

[Closing]
e|-------------------------------------------------------------------------|
B|-------------------------------------------------------------------------|
G|----------4-----------------------------------------------------------|
D|-22--222--4---4--55-55555-----------------------------------------------|
A|-00--222--2---4--55-55555----x2--------------------------|
E|-00--000------2--33-33333----------------------------------------------|

[Ending]
e|-------------------------------------------------------------------------|
B|-------------------------------------------------------------------------|
G|-------------------------------------------------------------------------|
D|--5-----------------------------------------------------------------------|
A|--2---End on this chord------------------------------------------------
E|--0-----------------------------------------------------------------------|

Thanks and hope you enjoy this tab.

 Tab created with Kastor's Guitar Tabulature Manager 3.0 (TabIt Quick 1.0)
            
Submit corrections

↑ Back to top | Tablatures and chords for acoustic guitar and electric guitar, ukulele, drums are parodies/interpretations of the original songs. You may use it for private study, scholarship, research or language learning purposes only