Home » B » Box Car Racer »

Box Car Racer - Letter To God Tabs

Artists:  A B C D E F G H I J K L M N O P Q R S T U V W X Y Z # 

Letter To God Tabs

(ver. 1) Click to play this song!
Box Car Racer
PROPS GO TO: mike ethier

This is a great song and it's pretty easy to play!

RIFF 1: Tom starts to sing after repeating 2 times.....

E----------------------------------------------------------------------------------------
B----------------------------------------------------------------------------------------
G----------------------------------------------------------------------------------------
D--222-222-44-555-555-55-----------------------------------------------------------------
A--222-222-44-555-555-55--------------repeat 6x------------------------------------------
E--000-000-22-333-333-33-----------------------------------------------------------------

RIFF 2: CHORUS
                "I, I won't lie, I won't sin........."
E----------------------------------------------------------------------------------------
B----------------------------------------------------------------------------------------
G------------555-5555------------777-77777-----------------------------------------------
D--222-2222--555-5555--555-5555--777-77777-----------------------------------------------
A--222-2222--333-3333--555-5555--555-55555-------------repeat 2x-------------------------
E--000-0000------------333-3333----------------------------------------------------------


....................[REPEAT RIFF 1 AND 2] and that goes into this........................


RIFF 3: INTERLUDE

E----------------------------------------------------------------------------------------
B----------------------------------------------------------------------------------------
G--------------------------------55555555------------------------------------------------
D--55555555--77777777--99999999--55555555------------------------------------------------
A--55555555--77777777--99999999--33333333-------------repeat 4x--------------------------
E--33333333--55555555--77777777----------------------------------------------------------

RIFF 4: CONCLUSION   (HEAVY DISTORTION)

E----------------------------------------------------------------------------------------
B----------------------------------------------------------------------------------------
G----------------------------------------------------------------------------------------
D--222-222-44-555-555-55------2222-44-55555555-------------------------------------------
A--222-222-44-555-555-55--2x--2222-44-55555555--2x---------------------------------------
E--000-000-22-333-333-33------0000-22-33333333-------------------------------------------

RIFF 5: REPEATIN CHORUS W/ HEAVY DISTORTION

E----------------------------------------------------------------------------------------
B----------------------------------------------------------------------------------------
G------------555-5555------------777-77777-----------------------------------------------
D--222-2222--555-5555--555-5555--777-77777-----------------2-----------------------------
A--222-2222--333-3333--555-5555--555-55555---repeat 4x-----2-----------------------------
E--000-0000------------333-3333----------------------------0-----------------------------

THATS IT! THESE TABS ARE ALL FROM ME AND MY ACOUSTIC THEY ARE PRETTY DAMN ACCURATE SO KEEP LISTENING TO PUNK AND KEEP ON PLAYING!!!! PEACE....
            
Submit corrections

↑ Back to top | Tablatures and chords for acoustic guitar and electric guitar, ukulele, drums are parodies/interpretations of the original songs. You may use it for private study, scholarship, research or language learning purposes only