Home » B » Beastie Boys »

Beastie Boys - Fight For Your Right To Party Bass

Artists:  A B C D E F G H I J K L M N O P Q R S T U V W X Y Z # 

Fight For Your Right To Party Bass

(ver. 3) Click to play this song!
Beastie Boys
Beastie Boys – Fight For Your Right

Intro:
G|-----------------------|
D|-----------------------|
A|0-3-5-0-3-5-0-3-5-0-3-5|
E|-----------------------|

G|------------------------|
D|------------------------|
A|0-3-5-0-3-5-0-3-5-0-3-0~|
E|------------------------|

Verse 1: 
x3
G|-------------------------------|
D|-------------------------------|
A|0000000000000000000-0-3-5-0-3-5|
E|-------------------------------|

x1
G|-------------------------------|
D|-------------------------------|
A|0000000000000000000-0-3-5-0~---|
E|-------------------------------|

Chorus 1:
G|------------------------------------|
D|------------------------------------|
A|5-5-----333—0-3-5-0-3-5-0-3-5-0-3-0~|
E|------------------------------------|

Verse 2: 
x3
G|-------------------------------|
D|-------------------------------|
A|0000000000000000000-0-3-5-0-3-5|
E|-------------------------------|

x1
G|-------------------------------|
D|-------------------------------|
A|0000000000000000000-0-3-5-0~---|
E|-------------------------------|

Chorus 2:
G|-------------------------------------|
D|-------------------------------------|
A|5-5-----333—0-3-5-0-3-5-0-3-5-0-3-5--|
E|-------------------------------------|

Bridge 1:
G|------------------------------------|
D|------------------------------------|
A|------------------------------------|
E|00000000-3b-0~-0000-3b-0~-0000-3b-0~|

Solo:
G|-------------------------|
D|-------------------------|
A|0-3-5-0-3-5-0-3-5-0-3-5--|
E|-------------------------|

G|------------------------|
D|------------------------|
A|0-3-5-0-3-5-0-3-5-0-3-0~|
E|------------------------|

Verse 3: 
x3
G|-------------------------------|
D|-------------------------------|
A|0000000000000000000-0-3-5-0-3-5|
E|-------------------------------|

x1
G|--------------------------------|
D|--------------------------------|
A|0000000000000000000-0-3-5-0~----|
E|--------------------------------|

Chorus 3: x2
G|-------------------------------------|
D|-------------------------------------|
A|5-5-----333—0-3-5-0-3-5-0-3-5-0-3-5--|
E|-------------------------------------|

Bridge 2:
G|------------------------------------|
D|------------------------------------|
A|------------------------------------|
E|00000000-3b-0~-0000-3b-0~-0000-3b-0~|

End: Paaaaaaaaaaaaaaarty!
G|-------------------------|
D|-------------------------|
A|0-3-5-0-3-5-0-3-5-0-3-5--|
E|-------------------------|

G|------------------------|
D|------------------------|
A|0-3-5-0-3-5-0-3-5-0-3-0~|
E|------------------------|
            
Submit corrections

↑ Back to top | Tablatures and chords for acoustic guitar and electric guitar, ukulele, drums are parodies/interpretations of the original songs. You may use it for private study, scholarship, research or language learning purposes only