Home » B » Beastie Boys »

Beastie Boys - Sabotage Tabs

Artists:  A B C D E F G H I J K L M N O P Q R S T U V W X Y Z # 

Sabotage Tabs

(ver. 1) Click to play this song!
Beastie Boys
Here is the main BASS part on guitar.  After that then switch to this then back.
----------------------------------//-------------------------------------------/
---------------------------------//--------------------------------4-----------/
-----6-----6-----6-----6-----4--//-----6-----6-----------2^4--4^6----------
-4-4---4-4---4-4---4-4---4-4---//--4-4---4-4---4-4---2^4----------------/


The guitar, on the on and off breaks and record scratching goes like this!!!!
----------------------
----------------------
-6-6-------6-6--------
-6-6-------6-6--------
-4-4-------4-4--------
-4-4--////-4-4--//////
            
Submit corrections

↑ Back to top | Tablatures and chords for acoustic guitar and electric guitar, ukulele, drums are parodies/interpretations of the original songs. You may use it for private study, scholarship, research or language learning purposes only